PrimaNota.ru - самый крупный в мире бесплатный архив песенных текстов, аккордов, табулатур и нот


Limblifter - Count To 9 - таба, видео

Регистрация Запомнить меня
Войти через:  Facebook Google Twitter Vk Yandex Mail.ru

Limblifter - Count To 9 - таба, видео

Печатать
Просмотров: 102
Уроки эстрадного вокала в Санкт-Петербурге
Limblifter
Count to 9 tab from the album Bellaclava
by Andrew Prefontaine

This is all my own work from sitting around and listening to the CD
and comparing the tune from the guitar.

Tuning:
1/2 step down & drop D
Eb Bb Gb Db Ab Db

The intro is pretty much the same as the verse

verse:

    E    E    E    E             F#   F#   F#   F#
----------------------------------------------------
----------------------------------------------------
----------------------------------------------------
----3----3----3----3-------------5----5----5----5---
----3----3----3----3-------------5----5----5----5---
----3----3----3----3-------------5----5----5----5---



Chorus: (I figured the last section was the chorus...but oh well)

---------------------------------------------------------------------
---------------------------------------------------------------------
---------------------------------------------------------------------
----5--7--9b---5--7--2----5--7--9b-----5--7--2-----5--7--9b---5--7--2
---------------------------------------------------------------------
----5--7--9b---5--7--2----5--7--9b-----5--7--2-----5--7--9b---5--7--2

-----------------------
-----------------------
-----------------------
------5--0------5---2--
-----------------------
------5--0------5---2--


---------------------------------------------------------------------
---------------------------------------------------------------------
---------------------------------------------------------------------
----5--9b---5--7--2----5--7--9b-----5--7--2-----5--7--9b---5--7--2---
---------------------------------------------------------------------
----5--9b---5--7--2----5--7--9b-----5--7--2-----5--7--9b---5--7--2--

--------------------
--------------------
--------------------
---5--0------5---2--
--------------------
---5--0------5---2--


Then on to something else...I didn't really care what the chords were.
Here's a rough estimate of what they were:

G      Bb       A       F#

That's all there is to it

     
Добавлено: 07.12.2013
Вам также может быть интересно:
Другие материалы по этой песне:
  • Аккорды и текст

Страница создана 28.08.2013
http://primanota.ru/limblifter/count-to-9-chords.htm
Привет, Гость.
Предлагаем пройти революционный курс по гитаре.
Подарок от PrimaNota.Ru, забирай!