PrimaNota.ru - самый крупный в мире бесплатный архив песенных текстов, аккордов, табулатур и нот


Limbeck - Julia - таба, видео

Регистрация Запомнить меня
Войти через:  Facebook Google Twitter Vk Yandex Mail.ru

Limbeck - Julia - таба, видео

Печатать
Просмотров: 103
e-3-xx-3-xx-3x33-xx----|
b-3-xx-3-xx-3x33-xx----|
g-0-xx-0-xx-0x00-xx----|
d-0-xx-2-xx-0x00-xx----| Play that four times
a-2-xx-3-xx-2x22-xx----|
E-3-xx-x-xx-3x33-xx----|

e----------------------------------------------------------------|
b----------------------------------------------------------------|
g—5/7--7--7--5—7/9--7----------7--7------------------------------|
d------------------------7/9----------9—7/5------5---------------|
a---------------------------------------------7------------------|
E----------------------------------------------------------------|

play that twice with a bit of variation on the second time which you should be able to figure out.

the rest of the song plays around with the same solo area or whatever and
e-3-3-3-3-3-----|
b-3-3-3-3-3-----|
g-0-0-0-0-0-----| those chords... somthing to that effect at least.
d-0-2-0-2-0-----|
a-2-3-2-2-3-----|
E-3---3---------|
Добавлено: 15.05.2012
Другие материалы по этой песне:
  • Аккорды и текст

Страница создана 15.05.2012
http://primanota.ru/limbeck/julia-chords.htm
Привет, Гость.
Предлагаем пройти революционный курс по гитаре.
Подарок от PrimaNota.Ru, забирай!