PrimaNota.ru - самый крупный в мире бесплатный архив песенных текстов, аккордов, табулатур и нот


Lillix - Sweet Temptation Hollow - текст песни, бас-таба, видео

Регистрация Запомнить меня
Войти через:  Facebook Google Twitter Vk Yandex Mail.ru

Lillix - Sweet Temptation Hollow - текст песни, бас-таба, видео

Печатать
Просмотров: 132
Band - Lillix
Song - Sweet Temptation (Hollow)
Album - Inside the Hollow
Track - 4
Bassist - Louise Burns
www.lillix.net

Intro
G-----------------------------|
D-----------------------------|
A-----------------------------|
E-1--1-----------4--4------6--|

1st Verse (Tasha-Ray vocals):
G--------------------------------------------------------|
D--------------------------------------------------------|
A--------------------------------------------------------|
E-1-1-1-1-1-1-1-1-1-1-1-1-1-1-1-1-4-4-4-4---4-4-4-4---6--|

G-------------------------------------------------------|
D-------------------------------------------------------|
A-------------------------------------------------------|
E-1-1-1-1-1-1-1-1-1-1-1-1-1-1-1-1-4-4-4-4---4-4-4-4-----|

G-----------------------------------------------------------------|
D-----------------------------------------------------------------|
A-1-1-1-1-1-1-1-1-3-3-3-3-3-3-3-3-4-4-4-4-4-4-4-4-6-6-6-6-7-7-7-7-|
E-----------------------------------------------------------------|

Interlude:
G-----------------------------------------|
D-----------------------------------------|
A-8-8-10-10-11-11-7-7-8-8-10-10-11-11-7-7-|
E-----------------------------------------|

2nd Verse (Louise vocals):
Same as Verse 1

Chorus ("One, two three four"):
G---10--10--10--10--6---6---6---6-|
D---------------------------------|
A-8---8---8---8---4---4---4---4---|
E---------------------------------|

G-------------------5---5---------|
D---6---6---6---6-----------------|
A-----------------3---3---5-5-6-6-|
E-4---4---4---4-------------------|

Repeat Chorus x3

Interlude x2

3rd Verse (Lacey-Lee vocals):
Same as first 2

Chorus x4

Interlude x4

Bridge:
G------------------------------------------------|
D------------------------------------------------|
A-8-888-8-88--7-777-7-77--6-666-6-66--5-555-5-67-|
E------------------------------------------------|

G---------------------------------------------------------------------|
D---------------------------------------------------------------------|
A-8-888-8-88--10-101010-10-1010--11-111111-11-1111--13-131313-13-1110-|
E---------------------------------------------------------------------|

G------------------------------------------------|
D------------------------------------------------|
A-8-888-8-88--7-777-7-77--6-666-6-66--5----------|
E------------------------------------------------|

Chorus x6

Ending
G-----
D-----
A-----
E-1-1-
Добавлено: 22.04.2012
Другие материалы по этой песне:
  • Аккорды и текст

Страница создана 22.04.2012
http://primanota.ru/lillix/sweet-temptation-hollow-chords.htm
Привет, Гость.
Предлагаем пройти революционный курс по гитаре.
Подарок от PrimaNota.Ru, забирай!