PrimaNota.ru - самый крупный в мире бесплатный архив песенных текстов, аккордов, табулатур и нот


Lillian Axe - Dyin To Live - аккорды и текст, таба, видео

Регистрация Запомнить меня
Войти через:  Facebook Google Twitter Vk Yandex Mail.ru

Lillian Axe - Dyin To Live - аккорды и текст, таба, видео

Печатать
Просмотров: 192
Dyin To Live
Lillian Axe
		   Dyin' To Live (Shades of Blue)
                               by LILLIAN AXE
 from the Grand Slam/IRS recording POETIC JUSTICE- lyrics & music:
 Cat.No. X4-13129                                  STEVIE BLAZE
 *Intro (2x's)
e:------------------|------------------|-------------------|
B:------------------|------------------|-------------------|
G:-----5-----5-----5|-----5-----5----5-|-----5------5----5-|
D:---5-----5--------|---5-----5--------|---5------5--------|
A:-3-----3-------3--|-0-----0------0---|-1-----1------1----|
E:------------------|------------------|-------------------|



e:------------------|------------------|-------------------|
B:------------------|------------------|-------------------|
G:-----5------5---5-|-----5------5---5-|----4------4-----4-|
D:---5------5-------|---5------5-------|--5------5---------|
A:------------------|------------------|-------------------|
E:-1-----1------1---|-3------3-----3---|-3-----3------3----|



e:------------------------|------------------------|
B:------------------------|------------------------|
G:-------5--------5-----5-|-------5--------5-----5-|
D:----5--------5----------|----5--------5----------|
A:-3--------3--------3----|-3--------3--------3----|
E:------------------------|------------------------|

        I never     looked behind me       Never saw the
* Verse #1
e:-----------------|----------------|-------------------|
B:-----6--5--------|----------------|-------6--5--------|
G:-----------7-----|--6-6---7---9---|--------------7----|
D:-7------------7--|--7-7---7---7---|-7---------------7-|
A:-5-5-------------|--7-7---7---7---|-5--5--------------|
E:-----------------|--5-5--(5)-(5)--|-------------------|

 shadows smile, Never watched the red light warning, All I
                                           wanted was to be
(Lick #1, one bar )                        in touch with you
e:---------------|------------|-------------|--------------|
B:---------------|----6-5-----|-------------|--------------|
G:-6--7--6-------|--------7---|-6-6---7---9-|-3--------5-5-|
D:-7--7--7---7-7-|-7--------7-|-7-7---7---7-|-3-3------5-5-|
A:-7--7--7---7-7-|-5-5--------|-7-7---7---7-|-1-3--3-3-3-3-|
E:-5-(5)(5)--5-5-|------------|-5-5--(5)-(5)|---1----------|



e:-----------------------------|---------------------------|
B:----------------8------------|---------------8-----------|
G:---------10--------10-----10-|-------10---------10----10-|
D:-----10------10--------10----|----10-----10--------10----|
A:--8--------------------------|--8------------------------|
E:-----------------------------|---------------------------|


Verse #2 (repeat above with inclusion of Lick #2 below)
----------
Took a chance on inner healing
Said it was the way to go
Find a way to make you happy
Can't do it, never could but what a show
Oh, no.

(Lick #2)* play in place of Lick 1 for 2nd verse
e:--------------------|
B:------------10--10--|
G:--6--7--6---9---9---|
D:--7--7--7---7---7---|
A:--7--7--7-----------|
E:--5-(5)(5)----------|

   I  look  to  you,     you look to me,  It's all the same,
* Pre-Chorus
e:--------------------|----------------0-|-----------------|
B:------1--------3----|-----1--------3---|----1--------3---|
G:---------2---4----4-|-------2----4-----|-------2---4---4-|
D:----2---------------|----2-------------|---2-------------|
A:-0------------------|-0----------------|-0---------------|
E:-----------4--------|----------4-------|----------4------|

just one big game

e:----------------0--------|   {Repeat Last 4 bars once}
B:-------1-----------3-----|    (repeated part)
G:----------2-----------4--|   * You say it's me,
D:----2--------------------|     I say it's you,
A:-0-----------------------|     You touched my love
E:--------------4----------|      With Shades of Blue.

                                    But maybe now,
e:-------------0-----------|-------------------------|
B:-------1--------1-----1--|-------------3-----------|
G:----------2--------2-----|-------0--------0-----0--|
D:----2--------------------|----0-----0--------0-----|
A:-0-----------------------|-2-----------------------|
E:-------------------------|-------------------------|



* Chorus(1/2 of intro)
------------------------
When you lose control
You'll see what I could give,
Trapped inside your heart, I'm dyin' to live.

* Verse #3 (repeat verse with Lick #3)
------------------------
One man without a mission, like an eagle flying slow
I wanted to kiss the blue sky,
but all the clouds were hanging far too low.

               accents
(Lick #3)*    ^       ^     play in place of
e:------------------------|    Lick #1 in verse #3
B:------------10------10--|
G:-6--7--6----9-------9---|
D:-7--7--7----7-------7---|
A:-7--7--7----------------|
E:-5-(5)(5)---------------|


* Pre-Chorus
--------------
And then one day, I looked away,
Into the air, the Lord was there,
He broke the sky, the sun flew by,
I died for you, Shades of Blue.

* Chorus(intro)
----------------
But maybe now, when you lose control,
You'll see what I could give,
Trapped inside your heart, I'm dyin' to live.

And if the moon is bright, the stars will all kiss you
The colors of my heart are shades of blue.

___________________________
* Guitar Solo(Pre-Chorus into
*	             Chorus)
---------------------------

* Chorus(1/2 of intro)
-----------------------------
But maybe now, when you lose control,
You'll see what I could give
Trapped inside your heart, I'm dyin' to live.
-------------


              When you lose control,
*Chorus(key change)
e:-------------------------|-------------------------|
B:-------------------------|-------------------------|
G:-------7--------7-----7--|-------7--------7-----7--|
D:----7--------7-----------|----7--------7-----------|
A:-5--------5--------5-----|-2--------2---------2----|
E:-------------------------|-------------------------|

            You'll see what I could give

e:-------------------------|-------------------------|
B:-------------------------|-------------------------|
G:-------7--------7-----7--|-------7--------7-----7--|
D:----7--------7-----------|----7--------7-----------|
A:-3--------3--------3-----|-------------------------|
E:-------------------------|-3--------3--------3-----|

  Trapped inside your heart, I'm dyin' to live
						  (Ending)
e:------------------|------------------|-----------------|
B:------------------|------------------|---------5-------|
G:-----7------7---7-|-----6-----6----6-|-----7------7----|
D:---7-----7--------|---7-----7--------|---7---7-------7-|
A:------------------|------------------|-5---------------|
E:-5-----5------5---|-5-----5-----5----|-----------------|

                  dyin' to live

e:-5--------5--------5--------|----------------------|
B:----5--------5--------5-----|-------------5--------|
G:-------7--------7--------7--|-------7--------7-----|
D:----------------------------|----7-----7--------7--|
A:----------------------------|-5--------------------|
E:----------------------------|----------------------|

                  dyin' to live

e:-5--------5--------5--------|----------------------|
B:----5--------5--------5-----|-------------5--------|
G:-------7--------7--------7--|-------7--------7-----|
D:----------------------------|----7-----7--------7--|
A:----------------------------|-5--------------------|
E:----------------------------|----------------------|


                  dyin' to live

e:-5--------5-------5---------|----------------------|
B:----5--------5--------5-----|-------------5--------|
G:-------7--------7--------7--|-------7--------7-----|
D:----------------------------|----7-----7--------7--|
A:----------------------------|-5--------------------|
E:----------------------------|----------------------|



e:-5-------5--------5-----|-5-------5--------5-------|
B:---5-------5--------5---|----5-------5--------5----|
G:------7------7--------7-|-------7-------7--------7-|
D:------------------------|--------------------------|
A:------------------------|--------------------------|
E:------------------------|--------------------------|


e:-5------5-------5-------|-5--------5-------5-------|
B:---5-------5-------5----|----5--------5-------5----|
G:------7-------7-------7-|-------7--------7-------7-|
D:------------------------|--------------------------|
A:------------------------|--------------------------|
E:------------------------|--------------------------|

                                         Fade out
e:-5------5--------5------|-5-------5--------5-------|
B:---5------5--------5----|----5-------5--------5----|
G:------7------7--------7-|-------7-------7--------7-|
D:------------------------|--------------------------|
A:------------------------|--------------------------|
E:------------------------|--------------------------|     
Добавлено: 12.09.2013
Вам также может быть интересно:
Другие материалы по этой песне:
  • Аккорды и текст

Страница создана 04.03.2012
http://primanota.ru/lillian-axe/dyin-to-live-chords.htm
Привет, Гость.
Предлагаем пройти революционный курс по гитаре.
Подарок от PrimaNota.Ru, забирай!