PrimaNota.ru - самый крупный в мире бесплатный архив песенных текстов, аккордов, табулатур и нот


Lil Wayne - Shoother - бас-таба, видео

Регистрация Запомнить меня
Войти через:  Facebook Google Twitter Vk Yandex Mail.ru

Lil Wayne - Shoother - бас-таба, видео

Печатать
Просмотров: 201
Easiest way to do this. I thought the other ones move around to much, this one is in one 
the whole time

G|---------------------|
D|---------7-----5---5-|
A|-------------7---7---|
E|---5-5-5-------------|

G|---------------------|
D|---------7-----5---5-|
A|-------------7---7---|
E|---5-5-5-------------|
repeat
Добавлено: 18.03.2012
Другие материалы по этой песне:
  • Аккорды и текст

Страница создана 18.03.2012
http://primanota.ru/lil-wayne/shoother-chords.htm
Привет, Гость.
Предлагаем пройти революционный курс по гитаре.
Подарок от PrimaNota.Ru, забирай!