PrimaNota.ru - самый крупный в мире бесплатный архив песенных текстов, аккордов, табулатур и нот


Lil Wayne - Ms Officer - бас-таба, видео

Регистрация Запомнить меня
Войти через:  Facebook Google Twitter Vk Yandex Mail.ru

Lil Wayne - Ms Officer - бас-таба, видео

Печатать
Просмотров: 237
Уроки эстрадного вокала в Санкт-Петербурге
Artist:Lil Wayne
Title:Ms. Officer
Album:Tha Carter III  
Transcribed by: |bl4nk|
Email:ohsnapok@yahoo.com
Tuning: Standard


G|--------------------------4--------|  
D|-------------123-3—4-3------3--1---|
A|--2--2---2-------------------------|
E|-----------------------------------|

G|----------------------------1--3---|
D|-------------123-3-4-3----1--------|
A|--2--2---2-------------------------|
E|-----------------------------------|


G|--4--------------------------------|
D|----1--------123-3-4-3----3-3--1---|
A|-----2---2-------------------------|
E|-----------------------------------|

G|-----------------------------------|
D|-------------123-3-4-3----3-3--1---|
A|--2--2---2-------------------------|
E|-----------------------------------|
Добавлено: 16.06.2012
Другие материалы по этой песне:
  • Аккорды и текст

Страница создана 16.06.2012
http://primanota.ru/lil-wayne/ms-officer-chords.htm
Привет, Гость.
Предлагаем пройти революционный курс по гитаре.
Подарок от PrimaNota.Ru, забирай!