PrimaNota.ru - самый крупный в мире бесплатный архив песенных текстов, аккордов, табулатур и нот


Lil Deuce Deuce - Mine Turtle - бас-таба, видео

Регистрация Запомнить меня
Войти через:  Facebook Google Twitter Vk Yandex Mail.ru

Lil Deuce Deuce - Mine Turtle - бас-таба, видео

Печатать
Просмотров: 38
-------------------------------------------------------------------------------
                             MINE TURTLE FEAT. TOMSKA - Lil Deuce Deuce
-------------------------------------------------------------------------------
Tabbed by: Naynaypo
E-mail: Kalvin@koetting.org

Tuning: E Standard

(heads up: It's played pretty fast)

INTR0
G|---------------------------------------------------------------------------|
D|---------------------------------------------------------------------------|
A|---------------------------------------------------------------------------|
E|-5-5-5-5-3-3-3-3-5-5-3-5---------------------------------------------------|

CHORUS "Mine Turtle!..."
G|---------------------------------------------------------------------------|
D|---------------------------------------------------------------------------|
A|-------------------------2-2-4-4--5-5-0-0-5-5-0-0-2-2-2-2-5-5-4-4----------|
E|-5-5-0-0-5-5-0-0-3-3-3-3---------------------------------------------------|
                                                                              }
G|---------------------------------------------------------------------------|
D|---------------------------------------------------------4-4---------------|
A|-------------------------2-2-4-4--5-5-0-0-5-5-0-0-2-2-5-5---5-5------------|
E|-5-5-0-0-5-5-0-0-3-3-3-3---------------------------------------------------|

VERSES (same notes as chorus)
G|---------------------------------------------------------------------------|
D|---------------------------------------------------------------------------|
A|-------------------------2-2-4-4--5-5-0-0-5-5-0-0-2-2-2-2-5-5-4-4----------|
E|-5-5-0-0-5-5-0-0-3-3-3-3---------------------------------------------------|
                                                                              }
G|---------------------------------------------------------------------------|
D|---------------------------------------------------------4-4---------------|
A|-------------------------2-2-4-4--5-5-0-0-5-5-0-0-2-2-5-5---5-5------------|
E|-5-5-0-0-5-5-0-0-3-3-3-3---------------------------------------------------|

"Stole alien technology..." part after SECOND VERSE
G|---------------------------------------------------------------------------|
D|---------------------------------------------------------------------------|
A|-----------5-4-------------5-4-7-------------------------------------------|
E|-5--3-5---5---5---5-3-5---5------------------------------------------------|

During SOLO
G|---------------------------------------------------------------------------|
D|---------------------------------------------------------------------------|
A|---------------------------------------------------------------------------|
E|-5-5-5-5-3-3-3-3-5-5-3-5--5-5-5-5-3-3-3-3-5-5-3-5--------------------------|
                                                                              }
G|---------------------------------------------------------------------------|
D|---------------------------------------------------------------------------|
A|---------------------------------------------------------------------------|
E|-0-0-0-0-0-0-0-0-4-4-4-4-4-4-4-4--5-5-5-5-5-5-5-5-5-5-5-5-5-5-5-5----------|
                                                                              }
G|---------------------------------------------------------------------------|
D|---------------------------------------------------------------------------|
A|---------------------------------------------------------------------------|
E|-0-0-0-0-0-0-0-0-0---------------------------------------------------------|

END (:
Добавлено: 23.12.2015
Вам также может быть интересно:
Другие материалы по этой песне:
  • Аккорды и текст

Страница создана 23.12.2015
http://primanota.ru/lil-deuce-deuce/mine-turtle-chords.htm
Привет, Гость.
Предлагаем пройти революционный курс по гитаре.
Подарок от PrimaNota.Ru, забирай!