PrimaNota.ru - самый крупный в мире бесплатный архив песенных текстов, аккордов, табулатур и нот


Like Wendy - The Price For Trust - аккорды и текст, видео

Регистрация Запомнить меня
Войти через:  Facebook Google Twitter Vk Yandex Mail.ru

Like Wendy - The Price For Trust - аккорды и текст, видео

Печатать
Просмотров: 107
Уроки эстрадного вокала в Санкт-Петербурге
The Price For Trust
Like Wendy
---------------------------------------------------------------------------------------------------------------
                                          Artist - Like Wendy
                                         *********************
                                      Song - The Price For Trust
                                     ****************************
                               Album - Tales From Moonlight Bay (2000)  
                              *****************************************
                                         Tabbed By - Ayreon77
                                        **********************
---------------------------------------------------------------------------------------------------------------
Tuning = Standard


INTRO - Muted with the right hand
******
  RIFF 1
e|-----------------------|----------------------|
B|-----------------------|----------------------|
G|-------7---7-------7---|-------5----------3---|
D|-5-5-5---5---5-5-5---5-|-5-5-5---5--5-5-5---5-|
A|-----------------------|----------------------|
E|-----------------------|----------------------|X2


-----------------------------
00:18
SMALL SOLO
***********
e|------h-----s------------------------|
B|-11-10-11-10\-8---6-8---5-6--3-5-----|
G|---------------------------------5-3-|
D|-------------------------------------|
A|-------------------------------------|
E|-------------------------------------|X2


-----------------------------
00:30
Muted with the right hand
  RIFF 2
e|-----------------------|----------------------|
B|-----------------------|----------------------|
G|-------7-----------7---|-------5----------3---|
D|-5-5-5---5---5-5-5---5-|-5-5-5---5--5-5-5---5-|
A|-----------------------|----------------------|
E|-----------------------|----------------------|X2


-----------------------------
00:42
SMALL SOLO
***********
e|------h-----s------------------------|------h-----h-----s------s-------------|
B|-11-10-11-10\-8---6-8---5-6--3-5-----|-11-10-11-10-11-11\13--13\15-15--15-13-|
G|---------------------------------5-3-|---------------------------------------|
D|-------------------------------------|---------------------------------------|
A|-------------------------------------|---------------------------------------|
E|-------------------------------------|---------------------------------------|



-----------------------------
VERSE 1
********
Gm                F     Gm       Am
 Time slowly goes by as we drift apart
Gm                             F
Well that's how it goes in the life
Gm                            Am
Still there's one thing on my mind



-----------------------------
CHORUS - Play this with the CHORUS below
*******
e|------h-----s------------------------|------h-----h-----s------s-------------|
B|-11-10-11-10\-8---6-8---5-6--3-5-----|-11-10-11-10-11-11\13--13\15-15--15-13-|
G|---------------------------------5-3-|---------------------------------------|
D|-------------------------------------|---------------------------------------|
A|-------------------------------------|---------------------------------------|
E|-------------------------------------|---------------------------------------|

CHORUS
******* 
           Gm          C
What about my feelings
Gm                C
I can't stand the silence
           Gm          C
What about my feelings
Gm                Am
I can't stand the lies


-----------------------------
VERSE 2
********
Gm              F           Gm          C
I listen to the sounds that go back for so long
Gm              F
I realize my mistakes
Gm                  C
But is this what it takes 


-----------------------------
CHORUS - Play this with the CHORUS below 
*******
e|------h-----s------------------------|------h-----h-----s------s-------------|
B|-11-10-11-10\-8---6-8---5-6--3-5-----|-11-10-11-10-11-11\13--13\15-15--15-13-|
G|---------------------------------5-3-|---------------------------------------|
D|-------------------------------------|---------------------------------------|
A|-------------------------------------|---------------------------------------|
E|-------------------------------------|---------------------------------------|
CHORUS
*******
             Gm          C
to walk over my feelings
Gm                C
I can't stand the silence
              Gm          C
So what about my feelings
   Gm                 Am
Is this the price for trust


----------------------------
02:07
SOLO - * = VOL muted slightly
*****  
  Gm           F                                                                            Gm 
               02:13                                                                        02:26 
e|------------|--------------p----|------------s---p----|------------s---p-----s-----------|---------------s-|
B|-*----------|-----------6-6-4-6-|---6-6-4-6-6\8-8-6-8-|---6-8-6-8-8\9-9-8-9-9\11-8~~~~~~-|-12-~~~~~~~~~~-\-|
G|-7-~~~~~~~~-|---5-5---5---------|-5-------------------|-8--------------------------------|-----------------|
D|------------|-5-----8-----------|---------------------|----------------------------------|-----------------|
A|------------|-------------------|---------------------|----------------------------------|-----------------|
E|------------|-------------------|---------------------|----------------------------------|-----------------|


-----------------------------
VERSE 3
********
Gm         F
I know now who we are
   Gm                      C
If only for a short moment of time
    Gm            F         Gm              C
The presence of a past lies dead here at my feet


-----------------------------
CHORUS - Play this with the CHORUS below
*******
e|------h-----s------------------------|------h-----h-----s------s-------------|
B|-11-10-11-10\-8---6-8---5-6--3-5-----|-11-10-11-10-11-11\13--13\15-15--15-13-|
G|---------------------------------5-3-|---------------------------------------|
D|-------------------------------------|---------------------------------------|
A|-------------------------------------|---------------------------------------|
E|-------------------------------------|---------------------------------------|

CHORUS
*******
                 Gm          C
Don't talk about my feelings
Gm               C
You never really loved
                 Gm          C
Don't talk about my feelings
    Gm           Am            Gm
You never really tried to understand


-----------------------------
03:07
  RIFF 2
e|-----------------------|----------------------|
B|-----------------------|----------------------|
G|-------7-----------7---|-------5----------3---|
D|-5-5-5---5---5-5-5---5-|-5-5-5---5--5-5-5---5-|
A|-----------------------|----------------------|
E|-----------------------|----------------------|X2


03:19
SMALL SOLO
***********
e|------h-----s------------------------|
B|-11-10-11-10\-8---6-8---5-6--3-5-----|
G|---------------------------------5-3-|
D|-------------------------------------|
A|-------------------------------------|
E|-------------------------------------|X2


03:31
  RIFF 2
e|-----------------------|----------------------|
B|-----------------------|----------------------|
G|-------7-----------7---|-------5----------3---|
D|-5-5-5---5---5-5-5---5-|-5-5-5---5--5-5-5---5-|
A|-----------------------|----------------------|
E|-----------------------|----------------------|X2


03:43
SMALL SOLO LITTLE DIFFERENT
****************************
e|------h-----s-------------------------------|------h-----s-------s---------h-----------s--|
B|-11-10-11-10\-8---6-8--5-6--3-5-------------|-11-10-11-10\-8---11\13-13--13-15-15-13-13-\-|
G|--------------------------------5-7--3-5~~~-|---------------------------------------------|
D|--------------------------------------------|---------------------------------------------|
A|--------------------------------------------|---------------------------------------------|
E|--------------------------------------------|---------------------------------------------|



ENJOY............
Добавлено: 16.12.2015
Другие материалы по этой песне:
  • Аккорды и текст

Страница создана 16.12.2015
http://primanota.ru/like-wendy/price-for-trust-chords.htm
Привет, Гость.
Предлагаем пройти революционный курс по гитаре.
Подарок от PrimaNota.Ru, забирай!