PrimaNota.ru - самый крупный в мире бесплатный архив песенных текстов, аккордов, табулатур и нот


Like Wendy - Blue Velvet Skies - таба, видео

Регистрация Запомнить меня
Войти через:  Facebook Google Twitter Vk Yandex Mail.ru

Like Wendy - Blue Velvet Skies - таба, видео

Печатать
Просмотров: 82
---------------------------------------------------------------------------------------------------------------
                                          Artist - Like Wendy 
                                         *********************
                                       Song - Blue Velvet Skies
                                      **************************
                                    Album - The Storm Inside (1998)   
                                   *********************************
                                         Tabbed By - Ayreon77
                                        **********************
---------------------------------------------------------------------------------------------------------------
Tuning = Standard

p   = Pull Off
h   = Hammer On
b   = Bend
rb  = Release Bend
rbp = Release Bend Pulloff
br  = Bend Release
brp = Bend Release Pulloff
/   = Slide
UB  = Union Bend



KEYBOARD INTRO
***************


----------------------------
00:38
SOLO 1 - Vol = *
*******

e|--*-----|-----------------------------|----------------------|---------------------|--------------|
B|-13~~~~-|---h-------s---------s-------|-----s---------s------|------s---------s----|---h------13--|
G|--------|-12-14--12-\10-10--9-\7-7~~~-|-7-9-\10-12--12\14-14-|-14-12\10-10--9-\7-7-|-12-14-12-----|
D|--------|-----------------------------|----------------------|---------------------|--------------|
A|--------|-----------------------------|----------------------|---------------------|--------------|
E|--------|-----------------------------|----------------------|---------------------|--------------|

00:51                                              00:56       h  p
e|-----------------5---5-|---8-7-----h--p-s-s-----|-10-13-12-10-12-10----10----------------|-----------------b-|
B|--p----------5-8---8---|--x----10-8-10-8\5/8--s-|-------------------13----13-12-10-12-13-|-10-12-13-12-13-13-|
G|-5-4---4-5-7-----------|-x-------------------9\-|----------------------------------------|-------------------|
D|-----7-----------------|------------------------|----------------------------------------|-------------------|
A|-----------------------|------------------------|----------------------------------------|-------------------|
E|-----------------------|------------------------|----------------------------------------|-------------------|

01:03
e|--b-10-|--b-10-|--b-10-|--b-10-|--b-10-|--b-10-|--b-10-|--b-10-|--b-10-|--b-10-|--br--------|
B|-13----|-13----|-13----|-13----|-13----|-13----|-13----|-13----|-13----|-13----|-13-10------|
G|-------|-------|-------|-------|-------|-------|-------|-------|-------|-------|-------12~~-|
D|-------|-------|-------|-------|-------|-------|-------|-------|-------|-------|------------|
A|-------|-------|-------|-------|-------|-------|-------|-------|-------|-------|------------|
E|-------|-------|-------|-------|-------|-------|-------|-------|-------|-------|------------|


e|----------|------------------------------|-----------------------------|----------------------|
B|---h--p---|--h--p-s---h---h---s---p---h--|---h-------s--------s--------|-----s---------s------|
G|-10-12-10-|-9-10-9\7-7-9-7-9-7\5-7-5-4-5-|-12-14--12-\10-10--9-\7-7~~~-|-7-9-\10-12--12\14-14-|
D|----------|------------------------------|-----------------------------|----------------------|
A|----------|------------------------------|-----------------------------|----------------------|
E|----------|------------------------------|-----------------------------|----------------------|


e|---------------------|-----------------s-|
B|------s---------s----|---h------13~~~~~\-|
G|-14-12\10-10--9-\7-7-|-12-14-12----------|
D|---------------------|-------------------|
A|---------------------|-------------------|
E|---------------------|-------------------|


----------------------------
01:33
VERSE 1
********
    Dm               F
The light moves slowly
    C                 Dm
The skyline cuts it's threads
    Dm              F
The air is cold and still
    C                Dm
and feels as if it's dead


----------------------------
CHORUS
*******
Am                      Dm
   Will we ever see the sun
Am                        Dm
   Shine away blue velvet night


----------------------------
VERSE 2
********
    Dm             F
The smoke lies up ahead
       C             Dm
Like a curtain of despair
  Dm                  F
A mist draws from the shores
      C                    Dm
Where birds peck from it's glare


----------------------------
CHORUS
*******
Am                      Dm
   Will we ever see the sun
Am                        Dm
   Shine away blue velvet night


----------------------------
SYNTH - Am G
******


BRIDGE
*******
  Am                                    F
A white haze fills the blackness of the night
Am                       F
Shadows in a far horizon sight
Am                                 F
Distant ships doom up like iceberg isle
Am
Faces melt into the dark
   F       G          Am
As if they never were alive


----------------------------
03:32
SOLO 2 - Am F G....
*******
e|-----------|-----------|-------------|------------h-----h-----|------------s---|------h----------h-----|
B|------p----|---------b-|-------------|-----------6-8-6-6-8~~~-|-6-5---5-6-6\10-|-12-12-13-12-10-8-8-10-|
G|---5-7-5---|-------5-7-|-7-5-4-5-4---|--h----4-5--------------|-----7----------|-----------------------|
D|-7-------7-|-7---7-----|-----------5-|-5-7-7------------------|----------------|-----------------------|
A|-----------|---7-------|-------------|------------------------|----------------|-----------------------|
E|-----------|-----------|-------------|------------------------|----------------|-----------------------|

                                             03:51
e|------h------12-------|-------------------|---------------------|----------------|----------------------|
B|-12-12-13-12----12----|---h---------------|---h--p--s-----p--s--|--h--p-s---p-s--|--h-p-----------------|
G|-------------------12-|-12-14-14----------|-12-14-12\10-12-10\9-|-9-10-9\7-9-7\5-|-5-7-5----------------|
D|----------------------|-------------14-12-|---------------------|----------------|-------7~~~~~~~~~~~~~-|
A|----------------------|----------12-------|---------------------|----------------|----------------------|
E|----------------------|-------------------|---------------------|----------------|----------------------|


----------------------------
03:55
SYNTH
******

----------------------------
Am    Bm   F               G
Shine away shine on in our mind
Am            Dm
  That mourns forever

e|-VOLUME = *--|
B|-*----*----*-|
G|-9---10---12-|
D|-------------|
A|-------------|
E|-------------|

G                        Am
  Underneath blue velvet skies


----------------------------
SOLO 3 - Am Dm G....  Am Dm F G....
*******
04:34
e|---------------------|--------------------|------------------|------------------------------|
B|-------------b--b----|--h------p----------|------------------|------h--5-8~~~~~-8~~~~~~-8-8-|
G|---------5-7-7--7--7-|-5-7-7--5-4-5-4-----|-----------s------|--s--5-7----------------------|
D|--s--5-7-------------|----------------5~~-|--s--5-7--4\5-4---|-5\7--------------------------|
A|-5\7-----------------|--------------------|-5\7------------5-|------------------------------|
E|---------------------|--------------------|------------------|------------------------------|

04:49            b  b            h                                   h 
e|----------7-8-10-10-10~~~~~-|-8-10-8-|-8-7-8-7-------|----------|-7-8-7----|--h----s----h------------------|
B|--h--8-10-------------------|--------|---------8~~~~-|--h--8-10-|-------10-|-8-10-8\6--6-8---------------s-|
G|-7-9------------------------|--------|---------------|-7-9------|----------|---------------7~~~-5-5-4~~~~\-|
D|----------------------------|--------|---------------|----------|----------|-------------------------------|
A|----------------------------|--------|---------------|----------|----------|-------------------------------|
E|----------------------------|--------|---------------|----------|----------|-------------------------------|

05:04
e|-..........-FAST-...........-|--------------------h-----h-----------|
B|------h--5-8----------h--8---|--h-p----10-10-8-6-6-8-6-5-6-5----h-s-|
G|--h--5-7----------h--7-9-----|-7-9-7-------------------------7-7-9\-|
D|-5-7-----------9-7-9-------9-|-------9------------------------------|
A|-----------------------------|--------------------------------------|
E|-----------------------------|--------------------------------------|

                                                               h 
e|-----------|-------------------------------|--h----------|-10-12-----------|-------------------s-|
B|--h--------|--h-------------s------8~~-8~~-|-6-8-8-8-8-8-|-------10--10-10-|-13-12-10--10-10-10\-|
G|-4-5-4-----|-4-5-4-----5-7-7\9-7-9---------|-------------|-----------------|---------------------|
D|-------5---|-------5-7---------------------|-------------|-----------------|---------------------|
A|---------5-|-------------------------------|-------------|-----------------|---------------------|
E|-----------|-------------------------------|-------------|-----------------|---------------------|

                                                          FADE OUT.....................................
e|---h--p---------|------------s-|--h--------h-p----|--h--------h-p----|----------------------|------------|
B|-12-13-12-------|-10-12~~-12-\-|-5-8--5-6-5-6-5---|-5-8--5-6-5-6-5---|--s-------------------|--s---------|
G|----------12----|--------------|----------------5-|----------------5-|-5\7~~~-7--7-5-4--4---|-7\9~~~~~-7-|
D|-------------14-|--------------|------------------|------------------|--------------------5-|------------|
A|----------------|--------------|------------------|------------------|----------------------|------------|
E|----------------|--------------|------------------|------------------|----------------------|------------|

..............................................
e|-------------------|------------------------------|
B|---s---------------|-----s----------8~~~-8~~~-8-6-|
G|-7-\5-5~~~-7-4~~~~-|-9--9\7-5-7-------------------|
D|-------------------|------------7-----------------|
A|-------------------|------------------------------|
E|-------------------|------------------------------|


ENJOY..............
Добавлено: 03.06.2016
Другие материалы по этой песне:
  • Аккорды и текст

Страница создана 03.06.2016
http://primanota.ru/like-wendy/blue-velvet-skies-chords.htm
Привет, Гость.
Предлагаем пройти революционный курс по гитаре.
Подарок от PrimaNota.Ru, забирай!