PrimaNota.ru - самый крупный в мире бесплатный архив песенных текстов, аккордов, табулатур и нот


Like Swimming - Room Of Her Own - таба, видео

Регистрация Запомнить меня
Войти через:  Facebook Google Twitter Vk Yandex Mail.ru

Like Swimming - Room Of Her Own - таба, видео

Печатать
Просмотров: 46
-------------------------------------------------------------------------------
                            Room of Her Own - Like Swimming
-------------------------------------------------------------------------------
I really liked the intro to this so I just threw this together. Enjoy I guess!
Tabbed by: Mikaela Watson
E-mail:
MwatsonContact@gmail.com
Tuning:
Standard
e|----------------------------------------------------------------|
B|---1---1---1---1----1--1--1---1----1---1---3--3---1---1--1---1--|
G|---------------------------------2---2--------------------------|
D|------------------3---3--3--3-------------------3---3---3--3----|
A|-3---3---3---3--------------------------------------------------|
E|-----------------------------------------3---3------------------|


************************************

| /   slide up
| \   slide down
| h   hammer-on
| p   pull-off
| ~   vibrato
| +   harmonic
| x   Mute note
| b   Bend
| pb  Pre-bend
| br  Bend release
| pbr Pre-bend release
| brb Bend release bend

************************************
Добавлено: 02.12.2015
Другие материалы по этой песне:
  • Аккорды и текст

Страница создана 02.12.2015
http://primanota.ru/like-swimming/room-of-her-own-chords.htm
Привет, Гость.
Предлагаем пройти революционный курс по гитаре.
Подарок от PrimaNota.Ru, забирай!