PrimaNota.ru - самый крупный в мире бесплатный архив песенных текстов, аккордов, табулатур и нот


Like Moths To Flames - In Dreams - таба, видео

Регистрация Запомнить меня
Войти через:  Facebook Google Twitter Vk Yandex Mail.ru

Like Moths To Flames - In Dreams - таба, видео

Печатать
Просмотров: 90
-------------------------------------------------------------------------------
                             In Dreams - Like Moths to Flames
-------------------------------------------------------------------------------
Tabbed by: i.y.f.f.e (In Your Face Fuck Everything)
E-mail: hagernathan@yahoo.com

Tuning: Drop A# (Bb F Bb Eb G C)

**The amount of times each note is played may not be exact, but is very close**

 (INTRO RIFF)
|-------------------------------------------------14-14-14-10-10-10-12-12-12-12-12-12-12-12-12-12-|
|-10h12-12-12-12-12-12-12-12-12-12-12-12-12-12-12-------------------------------------------------|
|-------------------------------------------------------------------------------------------------|
|-------------------------------------------------------------------------------------------------|
|-------------------------------------------------------------------------------------------------|
|-------------------------------------------------------------------------------------------------|

|-------------------------------------------------14-14-14-10-10-10-12-12-12-17-17-17-17-19-19-19-|
|-10h12-12-12-12-12-12-12-12-12-12-12-12-12-12-12-------------------------------------------------|
|-------------------------------------------------------------------------------------------------|
|-------------------------------------------------------------------------------------------------| Intro x2
|-------------------------------------------------------------------------------------------------|
|-------------------------------------------------------------------------------------------------|

 (PRE-CHORUS)
|---------------------------------------------------------------------|
|---------------------------------------------------------------------|
|-----11-11-11-11-11-11-11-11-11-11-11-11-----9-9-9-9-9-9-9-9-9-9/7-7-|
|-5-5-------------------------------------5-5-------------------------|
|-5-5-9--9--9--9--9--9--9--9--9--9--9--9--5-5-7-7-7-7-7-7-7-7-7-7/5-5-|
|-5-5-------------------------------------5-5-------------------------|

|------------------------------------------------------------------------------------|
|------------------------------------------------------------------------------------|
|-----12-12-12-12-12-12-12-12-12-12-12-12-----11-11-11-11-11-11-11-11-11-11-11-11-11-|
|-5-5-------------------------------------5-5----------------------------------------|
|-5-5-10-10-10-10-10-10-10-10-10-10-10-10-5-5-9--9--9--9--9--9--9--9--9--9--9--9--9--|
|-5-5-------------------------------------5-5----------------------------------------|

 (CHORUS)
|------------------------------------------------------|
|------------------------------------------------------|
|------------------------------------------------------|
|-5-5-5-5--5--5-5--5--5-5-5--9-9-9-9--9--9-7--7--7-7-7-|
|-5-5-5-5--5--5-5--5--5-5-5--9-9-9-9--9--9-7--7--7-7-7-|
|-5-5-5-5--5--5-5--5--5-5-5--9-9-9-9--9--9-7--7--7-7-7-|

|--------------------------------------------------------------|
|--------------------------------------------------------------|
|--------------------------------------------------------------|
|-5-5-5-5-5-5-5-5-5-5-5-5-9-9-9-9-9-9-9-9-12-12-12-12-12-12-12-|
|-5-5-5-5-5-5-5-5-5-5-5-5-9-9-9-9-9-9-9-9-12-12-12-12-12-12-12-| Chorus x2
|-5-5-5-5-5-5-5-5-5-5-5-5-9-9-9-9-9-9-9-9-12-12-12-12-12-12-12-|

 (Intro Riff x2)
 (Pre-Chorus)
 (Chorus)

 (BRIDGE)
|-------------------------------------------------------------------------------------------------------|
|-------------------------------------------------------------------------------------------------------|
|-9-9-9-9-9-9-9-9-9-9-9-9-16-16-16-12-12-12-12-12-12-12-12-12-12-12-12-11-11-11-7-7-7-7-7-7-7-7-7-7-7-7-|
|-------------------------------------------------------------------------------------------------------|
|-7-7-7-7-7-7-7-7-7-7-7-7-14-14-14-10-10-10-10-10-10-10-10-10-10-10-10-9--9--9--5-5-5-5-5-5-5-5-5-5-5-5-|
|-------------------------------------------------------------------------------------------------------|

|-----------------------------------------------------------------------------------------------------------|
|-----------------------------------------------------------------------------------------------------------|
|-9-9-9-9-9-9-9-9-9-9-9-9-9-9-16-16-16-16-16-16-16-16-16-16-16-16-16-16-19-19-19-19-19-19-19-19-19-19-19-19-|
|-----------------------------------------------------------------------------------------------------------|
|-7-7-7-7-7-7-7-7-7-7-7-7-7-7-14-14-14-14-14-14-14-14-14-14-14-14-14-14-17-17-17-17-17-17-17-17-17-17-17-17-|
|-----------------------------------------------------------------------------------------------------------|

|---------------------------------------------------------------------|
|---------------------------------------------------------------------|
|-21-21-21-21-9-9-7-7-7-7-7-7-7-7-9-9-9-9-9-9-9-9-9-9-9-9-9-9---------|
|-------------------------------------------------------------5--9--7-|
|-19-19-19-19-7-7-5-5-5-5-5-5-5-5-7-7-7-7-7-7-7-7-7-7-7-7-7-7-5--9--7-|
|-------------------------------------------------------------5--9--7-|

|--------------------------------------------------------------|
|--------------------------------------------------------------|
|--------------------------------------------------------------|
|-5-5-5-5-5-5-5-5-5-5-5-5-9-9-9-9-9-9-9-9-12-12-12-12-12-12-12-|
|-5-5-5-5-5-5-5-5-5-5-5-5-9-9-9-9-9-9-9-9-12-12-12-12-12-12-12-| 
|-5-5-5-5-5-5-5-5-5-5-5-5-9-9-9-9-9-9-9-9-12-12-12-12-12-12-12-|
 
 (OUTRO)
|------------------------------------------------------|
|------------------------------------------------------|
|------------------------------------------------------|
|-5-5-5-5--5--5-5--5--5-5-5--9-9-9-9--9--9-7--7--7-7-7-|
|-5-5-5-5--5--5-5--5--5-5-5--9-9-9-9--9--9-7--7--7-7-7-|
|-5-5-5-5--5--5-5--5--5-5-5--9-9-9-9--9--9-7--7--7-7-7-|

|--------------------------------------------------------------|
|--------------------------------------------------------------|
|--------------------------------------------------------------|
|-5-5-5-5-5-5-5-5-5-5-5-5-9-9-9-9-9-9-9-9-12-12-12-12-12-12-12-|
|-5-5-5-5-5-5-5-5-5-5-5-5-9-9-9-9-9-9-9-9-12-12-12-12-12-12-12-| 
|-5-5-5-5-5-5-5-5-5-5-5-5-9-9-9-9-9-9-9-9-12-12-12-12-12-12-12-|

|------------------------------------------------------|
|------------------------------------------------------|
|------------------------------------------------------|
|-5-5-5-5--5--5-5--5--5-5-5--9-9-9-9--9--9-7--7--7-7-7-|
|-5-5-5-5--5--5-5--5--5-5-5--9-9-9-9--9--9-7--7--7-7-7-|
|-5-5-5-5--5--5-5--5--5-5-5--9-9-9-9--9--9-7--7--7-7-7-|

|-----------------------------------------------------------------------------------|
|-----------------------------------------------------------------------------------|
|-----------------------------------------------------------------------------------|
|-5-5-5-5-5-5-5-5-5-5-5-5-9-9-9-9-9-9-9-9-12-12-12-12-12-12-12-5-5-5-5--5-5-5-5--5\-|
|-5-5-5-5-5-5-5-5-5-5-5-5-9-9-9-9-9-9-9-9-12-12-12-12-12-12-12-5-5-5-5--5-5-5-5--5\-| 
|-5-5-5-5-5-5-5-5-5-5-5-5-9-9-9-9-9-9-9-9-12-12-12-12-12-12-12-5-5-5-5--5-5-5-5--5\-|

************************************

| /   slide up
| \   slide down
| h   hammer-on
| p   pull-off
| ~   vibrato
| +   harmonic
| x   Mute note
| b   Bend
| pb  Pre-bend
| br  Bend release
| pbr Pre-bend release
| brb Bend release bend

************************************
Добавлено: 18.11.2015
Вам также может быть интересно:
Другие материалы по этой песне:
  • Аккорды и текст

Страница создана 18.11.2015
http://primanota.ru/like-moths-to-flames/in-dreams-chords.htm
Привет, Гость.
Предлагаем пройти революционный курс по гитаре.
Подарок от PrimaNota.Ru, забирай!