PrimaNota.ru - самый крупный в мире бесплатный архив песенных текстов, аккордов, табулатур и нот


Like Moths To Flames - Bury Your Pain - таба, видео

Регистрация Запомнить меня
Войти через:  Facebook Google Twitter Vk Yandex Mail.ru

Like Moths To Flames - Bury Your Pain - таба, видео

Печатать
Просмотров: 269
Уроки эстрадного вокала в Санкт-Петербурге
-------------------------------------------------------------------------------
                             Bury Your Pain - Like Moths To Flames
-------------------------------------------------------------------------------
Tabbed by: Anthony Gonzalez
E-mail: Splidao@hotmail.com
Instagram & Twitter @splidao
Tuning: Drop A#
https://www.youtube.com/watch?v=X_b3oqbayOI
Here's my guitar cover of the song.  I've made a few changes on the tab
since i first made my cover
e|-6-----6-----6-----6-----6-----6-7-----7-----7-----7-----7-----------------|
B|---7-----7-----7-----7-----7-------6-----6-----6-----6-----6---6-----------|
G|-----8-----8-----8-----8-----8-------8-----8-----8-----8-----8-------------|(INTRO)
D|---------------------------------------------------------------------------|
A|---------------------------------------------------------------------------|
E|---------------------------------------------------------------------------|

e|-6-----6-----6-----6-----6-----------6-----6-----6-------------------------|
B|---7-----7-----7-----7-----7---7---7-----7-----7---------------------------|
G|-----8-----8-----8-----8-----8---7-----7-----7-----------------------------|
D|---------------------------------------------------------------------------|
A|---------------------------------------------------------------------------|
E|---------------------------------------------------------------------------|

e|-18t----19t----14t----13t----18t----19t----14t----13-----------------------|
B|---------------------------------------------------------------------------|
G|---------------------------------------------------------------------------|
D|---------------------------------------------------------------------------|
A|---------------------------------------------------------------------------|
E|---------------------------------------------------------------------------|

e|---------------------------------------------------------------------------|
B|---------------------------------------------------------------------------|
G|---------------------------------------------------------------------------|(PRE-VERSE)
D|-----------------------------------------7---------------------------------|
A|---------------------------------------5-----------------------------------|
E|-0-11-0--(00)-0-(0)-12b-(0)-0-(00)-0-3-------------------------------------|
             
e|---------------------------------------------------------------------------|
B|---------------------------------------------------------------------------|
G|---------------------------------------------------------------------------|
D|-------------------------------00-00-0-000---------------------------------|
A|-------------------------------00-00-0-000---------------------------------|
E|-0-11-0--xx-(00)-0-(0)-12b-(0)-11-11-1-111---------------------------------|

e|---------------------------------------------------------------------------|
B|---------------------------------------------------------------------------|
G|---------------------------------------------------------------------------|
D|-----------------------------------------7---------------------------------|
A|---------------------------------------5-----------------------------------|
E|-0-11-0--(00)-0-(0)-12b-(0)-0-(00)-0-3-------------------------------------|
             
e|---------------------------------------------------------------------------|
B|---------------------------------------------------------------------------|
G|---------------------------------------------------------------------------|
D|-------------------------------00-00-0-000---------------------------------|
A|-------------------------------00-00-0-000---------------------------------|
E|-0-11-0--xx-(00)-0-(0)-12b-(0)-11-11-1-111---------------------------------|


e|---------------------------------------------------------------------------|
B|---------------------------------------------------------------------------|
G|---------------------------------------------------------------------------|(VERSE)
D|---------------------------------------------------------------------------|
A|----------------------------------------1-------0--------------------------|
E|-0-(00)-0-(0000)-1-(00)-0-(00)-0-(00)-0---5-1-0---3-0----------------------|

e|---------------------------------------------------------------------------|
B|---------------------------------------------------------------------------|
G|---------------------------------------------------------------------------|
D|----------------------------------------1---5------------------------------|
A|----------------------------------------1---5------------------------------|
E|-0-(00)-0-(0000)-1-(00)-0-(00)-0-(00)-0-1---5------------------------------|

e|---------------------------------------------------------------------------|
B|---------------------------------------------------------------------------|
G|---------------------------------------------------------------------------|
D|---------------------------------------------------------------------------|
A|----------------------------------------1-------0--------------------------|
E|-0-(00)-0-(0000)-1-(00)-0-(00)-0-(00)-0---5-1-0---3-0----------------------|

e|---------------------------------------------------------------------------|
B|---------------------------------------------------------------------------|
G|---------------------------------------------------------------------------|
D|---------------------------------------------------------------------------|
A|---------------------------------------------------------------------------|
E|-0-(00)-0-(0000)-1-(00)-0-(00)-0-(00)-0------------------------------------|

e|---------------------------------------------------------------------------|
B|---------------------------------------------------------------------------|
G|---------------------------------------------------------------------------|(PRE-CHORUS)
D|-5----8----1----0--0--0--0--0----------------------------------------------|
A|-5----8----1----0--0--0--0--0----------------------------------------------|
E|-5----8----1---(0)(0)(0)(0)(0)--------x-x-x--------------------------------|  

e|---------------------------------------------------------------------------|
B|---------------------------------------------------------------------------|
G|---------------------------------------------------------------------------|
D|-5----8----1-----1-----3----5----0----1-----1-----3------------------------|(2x) Rhythm changes
A|-5----8----1-----1-----3----5----0----1-----1-----3------------------------| second time through
E|-5----8----1----(1)----3----5----0----1----(1)----3------------------------|

e|---------------------------------------------------------------------------|
B|---------------------------------------------------------------------------|
G|---------------------------------------------------------------------------|(PRE-VERSE)
D|-----------------------------------------7---------------------------------|
A|---------------------------------------5-----------------------------------|
E|-0-11-0--(00)-0-(0)-12b-(0)-0-(00)-0-3-------------------------------------|
             
e|---------------------------------------------------------------------------|
B|---------------------------------------------------------------------------|
G|---------------------------------------------------------------------------|
D|-------------------------------00-00-0-000---------------------------------|
A|-------------------------------00-00-0-000---------------------------------|
E|-0-11-0--xx-(00)-0-(0)-12b-(0)-11-11-1-111---------------------------------|

e|---------------------------------------------------------------------------|
B|---------------------------------------------------------------------------|
G|---------------------------------------------------------------------------|
D|-----------------------------------------7---------------------------------|
A|---------------------------------------5-----------------------------------|
E|-0-11-0--(00)-0-(0)-12b-(0)-0-(00)-0-3-------------------------------------|
             
e|---------------------------------------------------------------------------|
B|---------------------------------------------------------------------------|
G|---------------------------------------------------------------------------|
D|-------------------------------00-00-0-000---------------------------------|
A|-------------------------------00-00-0-000---------------------------------|
E|-0-11-0--xx-(00)-0-(0)-12b-(0)-11-11-1-111---------------------------------|

e|---------------------------------------------------------------------------|
B|---------------------------------------------------------------------------|
G|---------------------------------------------------------------------------|(VERSE)
D|---------------------------------------------------------------------------|
A|----------------------------------------1-------0--------------------------|
E|-0-(00)-0-(0000)-1-(00)-0-(00)-0-(00)-0---5-1-0---3-0----------------------|

e|---------------------------------------------------------------------------|
B|---------------------------------------------------------------------------|
G|---------------------------------------------------------------------------|
D|----------------------------------------1---5------------------------------|
A|----------------------------------------1---5------------------------------|
E|-0-(00)-0-(0000)-1-(00)-0-(00)-0-(00)-0-1---5------------------------------|

e|---------------------------------------------------------------------------|
B|---------------------------------------------------------------------------|
G|---------------------------------------------------------------------------|
D|--------------------------------1------------------------------------------|(BREAKDOWN)
A|--------------------------------1------------------------------------------|
E|-(0)-(0000)-13b-(00)-(00)-(000)-1-(000)0-(0000)----------------------------|

e|---------------------------------------------------------------------------|
B|---------------------------------------------------------------------------|
G|---------------------------------------------------------------------------|
D|--------------------------------1------------4--5-4------------------------|
A|--------------------------------1------------4--5-4------------------------|
E|-(0)-(0000)-13b-(00)-(00)-(000)-1-(000)-(0)-(4)-5-4------------------------|

e|---------------------------------------------------------------------------|
B|---------------------------------------------------------------------------|
G|---------------------------------------------------------------------------|
D|--------------------------------1------------------------------------------|
A|--------------------------------1------------------------------------------|
E|-(0)-(0000)-13b-(00)-(00)-(000)-1-(000)0-(0000)----------------------------|

e|---------------------------------------------------------------------------|
B|---------------------------------------------------------------------------|
G|---------------------------------------------------------------------------|
D|--------------------------------1--------0---4-----------------------------|
A|--------------------------------1--------0---4-----------------------------|
E|-(0)-(0000)-13b-(00)-(00)-(000)-1-(000)-(0)-(4)----------------------------|

e|---------------------------------------------------------------------------|
B|---------------------------------------------------------------------------|
G|---------------------------------------------------------------------------|
D|--------------------------------1------------------------------------------|
A|--------------------------------1------------------------------------------|
E|-(0)-(0000)-13b-(00)-(00)-(000)-1-(000)0-(0000)----------------------------|

e|---------------------------------------------------------------------------|
B|---------------------------------------------------------------------------|
G|---------------------------------------------------------------------------|
D|--------------------------------1------------4--5-4------------------------|
A|--------------------------------1------------4--5-4------------------------|
E|-(0)-(0000)-13b-(00)-(00)-(000)-1-(000)-(0)-(4)-5-4------------------------|

e|---------------------------------------------------------------------------|
B|---------------------------------------------------------------------------|
G|---------------------------------------------------------------------------|
D|--------------------------------1------------------------------------------|
A|--------------------------------1------------------------------------------|
E|-(0)-(0000)-13b-(00)-(00)-(000)-1-(000)0-(0000)----------------------------|

e|---------------------------------------------------------------------------|
B|---------------------------------------------------------------------------|
G|---------------------------------------------------------------------------|
D|--------------------------------1------------4--5-4------------------------|
A|--------------------------------1------------4--5-4------------------------|
E|-(0)-(0000)-13b-(00)-(00)-(000)-1-(000)-(0)-(4)-5-4------------------------|

e|---------------------------------------------------------------------------|
B|---------------------------------------------------------------------------|
G|---------------------------------------------------------------------------|(PRE CHORUS)
D|-5----8----1----0--0--0--0--0----------------------------------------------|
A|-5----8----1----0--0--0--0--0----------------------------------------------|
E|-5----8----1---(0)(0)(0)(0)(0)--------x-x-x--------------------------------|

e|---------------------------------------------------------------------------|
B|---------------------------------------------------------------------------|(CHORUS)
G|---------------------------------------------------------------------------|
D|-5----8----1-----1-----3----5----0----1-----1-----3------------------------|(2x) Rhythm changes
A|-5----8----1-----1-----3----5----0----1-----1-----3------------------------| second time through
E|-5----8----1----(1)----3----5----0----1----(1)----3------------------------|

e|---------------------------------------------------------------------------|
B|---------------------------------------------------------------------------|
G|---------------------------------------------------------------------------|
D|--------------------------------1------------------------------------------| (BREAKDOWN)
A|--------------------------------1------------------------------------------|
E|-(0)-(0000)-13b-(00)-(00)-(000)-1-(000)0-(0000)----------------------------|

e|---------------------------------------------------------------------------|
B|---------------------------------------------------------------------------|
G|---------------------------------------------------------------------------|
D|--------------------------------1------------4--5-4------------------------|
A|--------------------------------1------------4--5-4------------------------|
E|-(0)-(0000)-13b-(00)-(00)-(000)-1-(000)-(0)-(4)-5-4------------------------|

e|---------------------------------------------------------------------------|
B|---------------------------------------------------------------------------|
G|---------------------------------------------------------------------------|
D|--------------------------------1------------------------------------------|
A|--------------------------------1------------------------------------------|
E|-(0)-(0000)-13b-(00)-(00)-(000)-1-(000)0-(0000)----------------------------|

e|---------------------------------------------------------------------------|
B|---------------------------------------------------------------------------|
G|---------------------------------------------------------------------------|
D|--------------------------------1------------4--5-4------------------------|
A|--------------------------------1------------4--5-4------------------------|
E|-(0)-(0000)-13b-(00)-(00)-(000)-1-(000)-(0)-(4)-5-4------------------------|
                    

************************************

| /   slide up
| \   slide down
| h   hammer-on
| p   pull-off
| ~   vibrato
| +   harmonic
| x   Mute note
| b   Bend
| pb  Pre-bend
| br  Bend release
| pbr Pre-bend release
| brb Bend release bend
| ( ) Palm Mute
| t   Tremelo
************************************
Добавлено: 18.11.2015
Другие материалы по этой песне:
  • Аккорды и текст

Страница создана 18.11.2015
http://primanota.ru/like-moths-to-flames/bury-your-pain-chords.htm
Привет, Гость.
Предлагаем пройти революционный курс по гитаре.
Подарок от PrimaNota.Ru, забирай!