PrimaNota.ru - самый крупный в мире бесплатный архив песенных текстов, аккордов, табулатур и нот


Like Moths To Flames - The Blackout - таба, видео

Регистрация Запомнить меня
Войти через:  Facebook Google Twitter Vk Yandex Mail.ru

Like Moths To Flames - The Blackout - таба, видео

Печатать
Просмотров: 78
Like Moths To Flames - The Blackout
Tabbed by: vppark2
E-mail: linkinp751@gmail.com

Tuning: Drop A

I went by this video https://www.youtube.com/watch?v=PGoGKZ4mpDg

Intro Rhythm guitar (after first time playing this, lead guitar comes in)
B|------------------------------------------------------------------|
F#|-----------------------------------------------------------------|
D|18--18--18--18--18--18--18--18--21--21--21--21--16--16--16--16----|
A|--16--16--16--16--16--16--16--16--19--19--19--19--14--14--14--14--|
E|------------------------------------------------------------------|
A|------------------------------------------------------------------|

B|----------------------------------------------------------------------|
F#|---------------------------------------------------------------------|
D|----------------------------------------------------------------------|x2
A|000000--333333--888888--555555--000000--333333--101010101010--555555--|
E|000000--333333--888888--555555--000000--333333--101010101010--555555--|
A|000000--333333--888888--555555--000000--333333--101010101010--555555--|
                                                   10's
B|---------------------------------------------------------------|
F#|--------------------------------------------------------------|
D|---------------------------------------------------------------|x2
A|-----------------xxxx-xxxx-xx----------------------------------|
E|-----------------xxxx-xxxx-xx----------------------------------|
A|12-0-12-14-0-10b-xxxx-xxxx-xx-12-0-12-14-0-10b-3333-8888-5555--|

B|-----------------------------------------|
F#|----------------------------------------|x2
D|-------15-x8--14-x8----------------------|
A|12-x16--------------12-x10-12b-x6-10-x8--|
E|-----------------------------------------|
A|-----------------------------------------|
                             ^
                             Hold the bend note down the entire time
B|-------------------------------------------------------------------------------------|
F#|------------------------------------------------------------------------------------|
D|--14--14--12--12---------------------------------------------------------------------|
A|12--12--10--10-----------------------------------------------------------------------|
E|-------------------------------------------------------------------------------------|
A|-------------------------------------------------------------------------------------|

B|----------------------------------------------------------------------|
F#|---------------------------------------------------------------------|
D|----------------------------------------------------------------------|x2
A|000000--333333--888888--555555--000000--333333--101010101010--555555--|
E|000000--333333--888888--555555--000000--333333--101010101010--555555--|
A|000000--333333--888888--555555--000000--333333--101010101010--555555--|
                                                   10's
B|-----------------------------------------|
F#|----------------------------------------|x2
D|-------15-x8--14-x8----------------------|
A|12-x16--------------12-x10-12b-x6-10-x8--|
E|-----------------------------------------|
A|-----------------------------------------|
                             ^
                             Hold the bend note down the entire time
B|---------------------------------------------------------------------------|
F#|--------------------------------------------------------------------------|
D|---------------------------------------------------------------------------|
A|---------------------------------------------------------------------------|x2
E|-12----12------------------------------------------------------------------|
A|0--13-0--13----------------------------------------------------------------|

B|--------------------------------------------------------------------------------|
F#|-------------------------------------------------------------------------------|
D|--------------------------------------------------------------------------------|x2
A|---------------------10p--------------------------------------------------------|
E|-12----12-----------------12----12----------------------------------------------|
A|0--13-0--13-12121212-----0--13-0--13-12121212-1212------------------------------|
               12's                     12's     1's and 2's
B|------------------------------------------------------------------------------------|
F#|-----------------------------------------------------------------------------------|
D|------------------------------------------------------------------------------------|
A|---------------------10p-------------555-333-3--------------------------------------|
E|-12----12-----------------12----12---555-333-3-3------------------------------------|
A|0--13-0--13-12121212-----0--13-0--13-555-333-3-2------------------------------------|

B|----------------------------------------------------------------------|
F#|---------------------------------------------------------------------|
D|----------------------------------------------------------------------|x2
A|000000--333333--888888--555555--000000--333333--101010101010--555555--|
E|000000--333333--888888--555555--000000--333333--101010101010--555555--|
A|000000--333333--888888--555555--000000--333333--101010101010--555555--|
                                                   10's                                       ... ...
B|-----------------------------------------------------------------------|
F#|----------------------------------------------------------------------|
D|-----------------------------------------------------------------------|x2
A|000-000-333-333-888-888-555-555-000-000-333-333-101010-101010-555-555--|
E|000-000-333-333-888-888-555-555-000-000-333-333-101010-101010-555-555--|
A|000-000-333-333-888-888-555-555-000-000-333-333-101010-101010-555-555--|

B|---------------------------------------------------------------------------------------|
F#|--------------------------------------------------------------------------------------|
D|---------------------------------------------------------------------------------------|
A|xxxxxxxxxx-----------------------------------------------------------------------------|
E|xxxxxxxxxx-----------------------------------------------------------------------------|
A|xxxxxxxxxx-----------------------------------------------------------------------------|

************************************

| /   slide up
| \   slide down
| h   hammer-on
| p   pull-off
| ~   vibrato
| +   harmonic
| x   Mute note
| b   Bend
| pb  Pre-bend
| br  Bend release
| pbr Pre-bend release
| brb Bend release bend

************************************
Добавлено: 02.06.2016
Другие материалы по этой песне:

Страница создана 02.06.2016
http://primanota.ru/like-moths-to-flames/blackout-chords.htm
Привет, Гость.
Предлагаем пройти революционный курс по гитаре.
Подарок от PrimaNota.Ru, забирай!