PrimaNota.ru - самый крупный в мире бесплатный архив песенных текстов, аккордов, табулатур и нот


Like A Storm - Just Save Me - таба, видео

Регистрация Запомнить меня
Войти через:  Facebook Google Twitter Vk Yandex Mail.ru

Like A Storm - Just Save Me - таба, видео

Печатать
Просмотров: 185
Song: Just Save Me
Artist: Like A Storm
Album: The End of the Beginning
more Like A Storm tabs at likeastormfans.webs.com

Tuning: Drop C (C G C F A d)

Guitar 1 (lead)
Intro:
D|--------------13--12---8------|
A|------------------------------|
F|------------------------------|
C|------------------------------|
G|------------------------------|
C|------------------------------|

D|-----------------------------------------------------------------------------------|
A|-----------------------------------------------------------------------------------|
F|-----------------------------------------------------------------------------------|
C|--10-12-12-10-12-12-10-12-12-10-12-12-12--12--10-12-12-10-12-12-10-12-12-10-12-12--|
G|-----------------------------------------------------------------------------------|
C|-----------------------------------------------------------------------------------|

D|-----------13--12---8-----------------13--12---8---------------|
A|---------------------------------------------------------------|
F|---------------------------------------------------------------|
C|--12-----------------------------------------------------------|
G|---------------------------------------------------------------|
C|---------------------------------------------------------------|

D|-----------------------------------------------------------------------------------|
A|-----------------------------------------------------------------------------------|
F|-----------------------------------------------------------------------------------|
C|--10-12-12-10-12-12-10-12-12-10-12-12-12--12--10-12-12-10-12-12-10-12-12-10-12-12--|
G|-----------------------------------------------------------------------------------|
C|-----------------------------------------------------------------------------------|

D|-----------13--12---8-----------------13--12---8---------------|
A|---------------------------------------------------------------|
F|---------------------------------------------------------------|
C|--12-----------------------------------------------------------|
G|---------------------------------------------------------------|
C|---------------------------------------------------------------|

Verse:
can you hear my voice where you are
when I'm without you every moment falls apart

D|-------------8---------10------------8----------------------|
A|----------10---10---10----10------10---10----10----8--------|
F|------------------------------------------------------------|
C|------------------------------------------------------------|
G|------------------------------------------------------------|
C|------------------------------------------------------------|
I'm a burned out light   in the dark

D|-------------8---------10------------8----------------------|
A|----------10---10---10----10------10---10----10----8--------|
F|------------------------------------------------------------|
C|------------------------------------------------------------|
G|------------------------------------------------------------|
C|------------------------------------------------------------|
   in my empty    shell   I'm  calling out

Pre-chorus:
D|-----------------------------------------------|
A|-----------------------------------------------|
F|----7-7-10-10-9-9-------7-7-10-10-9-9----------|
C|------------------10-10---------------10-10----|
G|-----------------------------------------------|
C|-----------------------------------------------|
I've lost       my    faith 

D|-----------------------------------------------|
A|-----------------------------------------------|
F|----7-7-10-10-9-9-------7-7-10-10-9-9----------|
C|------------------10-10---------------10-10----|
G|-----------------------------------------------|
C|-----------------------------------------------|
     lost       my      way

D|--------------------------------------------------------------|
A|--------------------------------------------------------------|
F|----7-7-10-10-9-9-------7-7-10-10-9-9--------5-5-5-5-5-5-5-5--|
C|------------------10-10---------------10-10--5-5-5-5-5-5-5-5--|
G|---------------------------------------------3-3-3-3-3-3-3-3--|
C|--------------------------------------------------------------|
(it's all       so       far               away) 

Chorus:
D|-------------------------------------------------------------|
A|-------------------------------------------------------------|
F|------------10-10-10-10-10-10-10-10-10-10-10-10-10-10-10-10--|
C|------------10-10-10-10-10-10-10-10-10-10-10-10-10-10-10-10--|
G|-------------8--8--8--8--8--8--8--8--7--7--7--7--7--7--7--7--|
C|-------------------------------------------------------------|
what have I become                      can't face the morning

D|------------------------------------|
A|------------------------------------|
F|--7-7-7-7-7-7-7-7-3-3-3-3-3-3-3-3---|
C|--7-7-7-7-7-7-7-7-3-3-3-3-3-3-3-3---|
G|--5-5-5-5-5-5-5-5-1-1-1-1-1-1-1-1---|
C|------------------------------------|
  sun (just save me) you're the only

D|--------------------------------------------|
A|--------------------------------------------|
F|--10-10-10-10-10-10-10-10-5-5-5-5-5-5-5-5---|
C|--10-10-10-10-10-10-10-10-5-5-5-5-5-5-5-5---|
G|---8--8--8--8--8--8--8--8-3-3-3-3-3-3-3-3---|
C|--------------------------------------------|
   one    who can pull me out save me from

D|------------------------------------|
A|------------------------------------|
F|--7-7-7-7-7-7-7-7-3-3-3-3-3-3-3-3---|
C|--7-7-7-7-7-7-7-7-3-3-3-3-3-3-3-3---|
G|--5-5-5-5-5-5-5-5-1-1-1-1-1-1-1-1---|
C|------------------------------------|
myself just save me   just save me

D|-----------------------------------------------|
A|-----------------------------------------------|
F|----7-7-10-10-9-9-------7-7-10-10-9-9----------|
C|------------------10-10---------------10-10----|
G|-----------------------------------------------|
C|-----------------------------------------------|

D|-----------------------------------------------|
A|-----------------------------------------------|
F|----7-7-10-10-9-9-------7-7-10-10-7r-----------|
C|------------------10-10------------------------|
G|-----------------------------------------------|
C|-----------------------------------------------|

Verse 2:
pull me closer to you
I can't escape this emptiness I fell into

D|---------------8---------10------------8----------------------|
A|------------10---10---10----10------10---10----10----8--------|
F|--------------------------------------------------------------|
C|--------------------------------------------------------------|
G|--------------------------------------------------------------|
C|--------------------------------------------------------------|
caught in a shadow    I can't see through

I'm nothing without you

Chorus 2:
D|-------------------------------------------------------------|
A|-------------------------------------------------------------|
F|------------10-10-10-10-10-10-10-10-10-10-10-10-10-10-10-10--|
C|------------10-10-10-10-10-10-10-10-10-10-10-10-10-10-10-10--|
G|-------------8--8--8--8--8--8--8--8--7--7--7--7--7--7--7--7--|
C|-------------------------------------------------------------|
what have I become                      can't face the morning

D|------------------------------------|
A|------------------------------------|
F|--7-7-7-7-7-7-7-7-3-3-3-3-3-3-3-3---|
C|--7-7-7-7-7-7-7-7-3-3-3-3-3-3-3-3---|
G|--5-5-5-5-5-5-5-5-1-1-1-1-1-1-1-1---|
C|------------------------------------|
  sun (just save me) you're the only

D|--------------------------------------------|
A|--------------------------------------------|
F|--10-10-10-10-10-10-10-10-5-5-5-5-5-5-5-5---|
C|--10-10-10-10-10-10-10-10-5-5-5-5-5-5-5-5---|
G|---8--8--8--8--8--8--8--8-3-3-3-3-3-3-3-3---|
C|--------------------------------------------|
   one    who can pull me out save me from

D|------------------------------------|
A|------------------------------------|
F|--7-7-7-7-7-7-7-7-5-5-5-5-5-5-5-5---|
C|--7-7-7-7-7-7-7-7-5-5-5-5-5-5-5-5---|
G|--5-5-5-5-5-5-5-5-3-3-3-3-3-3-3-3---|
C|------------------------------------|
myself just save me   just save me

Bridge:
D|------------------------------------|
A|------------------------------------|
F|--3--3-3-3--3--3---5--5-5-5--5--5---|
C|--3--3-3-3--3--3---5--5-5-5--5--5---|
G|--1--1-1-1--1--1---3--3-3-3--3--3---|
C|------------------------------------|
   lost my faith    lost my way

D|------------------------------------|
A|------------------------------------|
F|--7------10-------10------12--------|
C|--7------10-------10------12--------|
G|--5-------7--------8------10--------|
C|------------------------------------|
I need to feel you here again

D|------------------------------------|
A|------------------------------------|
F|--3-3-3-3-3-3-3-3-5-5-5-5-5-5-5-5---|
C|--3-3-3-3-3-3-3-3-5-5-5-5-5-5-5-5---|
G|--1-1-1-1-1-1-1-1-3-3-3-3-3-3-3-3---|
C|------------------------------------|
         just save       me

D|----------------------------------------------------------------|
A|----------------------------------------------------------------|
F|---------------------------------------10-10-10-10-10-12-12-10--|
C|----------------------------------------------------------------|
G|---8---8---8---7---7---7---5---5---5----------------------------|
C|----------------------------------------------------------------|
            from what I've become            look what I've become

D|-----------------------------------------------|
A|-----------------------------------------------|
F|----7-10-9----7-10-9----7-10-9----7-10-9-------|
C|-----------10--------10--------10--------10----|
G|-----------------------------------------------|
C|-----------------------------------------------|

D|---------------------------------------|
A|---------------------------------------|
F|----7-10-9----7-10-9----3---3---3------|
C|-----------10--------10----------------|
G|---------------------------------------|
C|---------------------------------------|
(become) 

D|---------------------------------------------------|
A|---------------------------------------------------|
F|--10-10-10-10-10-10-10-10-10-10-10-10-10-10-10-10--|
C|--10-10-10-10-10-10-10-10-10-10-10-10-10-10-10-10--|
G|---8--8--8--8--8--8--8--8--7--7--7--7--7--7--7--7--|
C|---------------------------------------------------|

D|------------------------------------|
A|------------------------------------|
F|--7-7-7-7-7-7-7-7-3-3-3-3-3-3-3-3---|
C|--7-7-7-7-7-7-7-7-3-3-3-3-3-3-3-3---|
G|--5-5-5-5-5-5-5-5-1-1-1-1-1-1-1-1---|
C|------------------------------------|
                        I bleed for

D|--------------------------------------------|
A|--------------------------------------------|
F|--10-10-10-10-10-10-10-10-5-5-5-5-5-5-5-5---|
C|--10-10-10-10-10-10-10-10-5-5-5-5-5-5-5-5---|
G|---8--8--8--8--8--8--8--8-3-3-3-3-3-3-3-3---|
C|--------------------------------------------|
   you         I bleed for you    I bleed for

D|------------------------------------|
A|------------------------------------|
F|--7-7-7-7-7-7-7-7-3-3-3-3-3-3-3-3---|
C|--7-7-7-7-7-7-7-7-3-3-3-3-3-3-3-3---|
G|--5-5-5-5-5-5-5-5-1-1-1-1-1-1-1-1---|
C|------------------------------------|
       you

Chorus 3:
D|---------------------------------------------------|
A|---------------------------------------------------|
F|--10-10-10-10-10-10-10-10-10-10-10-10-10-10-10-10--|
C|--10-10-10-10-10-10-10-10-10-10-10-10-10-10-10-10--|
G|---8--8--8--8--8--8--8--8--7--7--7--7--7--7--7--7--|
C|---------------------------------------------------|
      what have I become (just save me) 

D|------------------------------------|
A|------------------------------------|
F|--7-7-7-7-7-7-7-7-3-3-3-3-3-3-3-3---|
C|--7-7-7-7-7-7-7-7-3-3-3-3-3-3-3-3---|
G|--5-5-5-5-5-5-5-5-1-1-1-1-1-1-1-1---|
C|------------------------------------|
can't face the morning sun (just save me) 

D|--------------------------------------------|
A|--------------------------------------------|
F|--10-10-10-10-10-10-10-10-5-5-5-5-5-5-5-5---|
C|--10-10-10-10-10-10-10-10-5-5-5-5-5-5-5-5---|
G|---8--8--8--8--8--8--8--8-3-3-3-3-3-3-3-3---|
C|--------------------------------------------|
        now I'm screaming out   save me from

D|------------------------------------|
A|------------------------------------|
F|--7-7-7-7-7-7-7-7-3-3-3-3-3-3-3-3---|
C|--7-7-7-7-7-7-7-7-3-3-3-3-3-3-3-3---|
G|--5-5-5-5-5-5-5-5-1-1-1-1-1-1-1-1---|
C|------------------------------------|
myself just save me     what have I

D|---------------------------------------------------|
A|---------------------------------------------------|
F|--10-10-10-10-10-10-10-10-10-10-10-10-10-10-10-10--|
C|--10-10-10-10-10-10-10-10-10-10-10-10-10-10-10-10--|
G|---8--8--8--8--8--8--8--8--7--7--7--7--7--7--7--7--|
C|---------------------------------------------------|
  become

D|------------------------------------|
A|------------------------------------|
F|--7-7-7-7-7-7-7-7-3-3-3-3-3-3-3-3---|
C|--7-7-7-7-7-7-7-7-3-3-3-3-3-3-3-3---|
G|--5-5-5-5-5-5-5-5-1-1-1-1-1-1-1-1---|
C|------------------------------------|
become              you're the only

D|--------------------------------------------|
A|--------------------------------------------|
F|--10-10-10-10-10-10-10-10-5-5-5-5-5-5-5-5---|
C|--10-10-10-10-10-10-10-10-5-5-5-5-5-5-5-5---|
G|---8--8--8--8--8--8--8--8-3-3-3-3-3-3-3-3---|
C|--------------------------------------------|
    one    who can pull me out  save me from

D|------------------------------------|
A|------------------------------------|
F|--3-3-3-3-3-3-3-3-5-5-5-5-5-5-5-5---|
C|--3-3-3-3-3-3-3-3-5-5-5-5-5-5-5-5---|
G|--1-1-1-1-1-1-1-1-3-3-3-3-3-3-3-3---|
C|------------------------------------|
myself just save me       just save

D|---------------------------------------------------------------------------------------|
A|---------------------------------------------------------------------------------------|
F|---------------------------------------------------------------------------------------|
C|--10-12-12-10-12-12-10-12-12-10-12-12-12--12--10-12-12-10-12-12-10-12-12-10-12-12--12--|
G|---------------------------------------------------------------------------------------|
C|---------------------------------------------------------------------------------------|
    me

D|-----------------------------------------------------------------------------------------------|
A|-----------------------------------------------------------------------------------------------|
F|-------------------------------------------------------------------10-10----10-10-12-10-12-14-\|
C|--10-12-12-10-12-12-10-12-12-10-12-12-12--12--10-12-12-10-12-12-14-------14--------------------|
G|-----------------------------------------------------------------------------------------------|
C|-----------------------------------------------------------------------------------------------|


Guitar 2 (rhythm)
Intro:
D|--------------------------|
A|--------------------------|
F|--7-7-10-10-9-9-----------| x4
C|----------------10-10-----|
G|--------------------------|
C|--------------------------|

D|-----------------------------------------------------------------------------------| -|
A|-----------------------------------------------------------------------------------|  |
F|-----------------------------------------------------------------------------------|  |
C|--10-12-12-10-12-12-10-12-12-10-12-12-12--12--10-12-12-10-12-12-10-12-12-10-12-12--|  |
G|--10-12-12-10-12-12-10-12-12-10-12-12-12--12--10-12-12-10-12-12-10-12-12-10-12-12--|  |
C|--10-12-12-10-12-12-10-12-12-10-12-12-12--12--10-12-12-10-12-12-10-12-12-10-12-12--|  |
                                                                                         >x2
D|-----------------------------------------------------------------------------------|  |
A|-----------------------------------------------------------------------------------|  |
F|-----------------------------------------------------------------------------------|  |
C|--12--8--8-8-8-8-8-8-8-8-8-8-8-12--10--10-10-10-10-10-10-10-10-10-10-10-10-10-10---|  |
G|--12--8--8-8-8-8-8-8-8-8-8-8-8-12--10--10-10-10-10-10-10-10-10-10-10-10-10-10-10---|  |
C|--12--8--8-8-8-8-8-8-8-8-8-8-8-12--10--10-10-10-10-10-10-10-10-10-10-10-10-10-10---| -|

Verse: (rhythm guitar doesn't play during the verses)
can you hear my voice where you are
when I'm without you every moment falls apart
I'm a burned out light in the dark
in my empty shell I'm calling out

Pre-chorus:
D|------------------------------|
A|------------------------------|
F|------------------------------|
C|------------------------------|
G|------------------------------|
C|------------------------------|
I've lost my faith lost my way

D|----------------------------------|
A|----------------------------------|
F|-----------------5-5-5-5-5-5-5-5--|
C|-----------------5-5-5-5-5-5-5-5--|
G|-----------------3-3-3-3-3-3-3-3--|
C|----------------------------------|
(it's all so far away)

Chorus:
D|-------------------------------------------------------------|
A|-------------------------------------------------------------|
F|------------10-10-10-10-10-10-10-10-10-10-10-10-10-10-10-10--|
C|------------10-10-10-10-10-10-10-10-10-10-10-10-10-10-10-10--|
G|-------------8--8--8--8--8--8--8--8--7--7--7--7--7--7--7--7--|
C|-------------------------------------------------------------|
what have I become                      can't face the morning

D|------------------------------------|
A|------------------------------------|
F|--7-7-7-7-7-7-7-7-3-3-3-3-3-3-3-3---|
C|--7-7-7-7-7-7-7-7-3-3-3-3-3-3-3-3---|
G|--5-5-5-5-5-5-5-5-1-1-1-1-1-1-1-1---|
C|------------------------------------|
  sun (just save me) you're the only

D|--------------------------------------------|
A|--------------------------------------------|
F|--10-10-10-10-10-10-10-10-5-5-5-5-5-5-5-5---|
C|--10-10-10-10-10-10-10-10-5-5-5-5-5-5-5-5---|
G|---8--8--8--8--8--8--8--8-3-3-3-3-3-3-3-3---|
C|--------------------------------------------|
   one    who can pull me out save me from

D|------------------------------------|
A|------------------------------------|
F|--7-7-7-7-7-7-7-7-3-3-3-3-3-3-3-3---|
C|--7-7-7-7-7-7-7-7-3-3-3-3-3-3-3-3---|
G|--5-5-5-5-5-5-5-5-1-1-1-1-1-1-1-1---|
C|------------------------------------|
myself just save me   just save me

Verse 2:
pull me closer to you
I can't escape this emptiness I fell into
caught in a shadow I can't see through
I'm nothing without you

Chorus 2:
D|-------------------------------------------------------------|
A|-------------------------------------------------------------|
F|------------10-10-10-10-10-10-10-10-10-10-10-10-10-10-10-10--|
C|------------10-10-10-10-10-10-10-10-10-10-10-10-10-10-10-10--|
G|-------------8--8--8--8--8--8--8--8--7--7--7--7--7--7--7--7--|
C|-------------------------------------------------------------|
what have I become                      can't face the morning

D|------------------------------------|
A|------------------------------------|
F|--7-7-7-7-7-7-7-7-3-3-3-3-3-3-3-3---|
C|--7-7-7-7-7-7-7-7-3-3-3-3-3-3-3-3---|
G|--5-5-5-5-5-5-5-5-1-1-1-1-1-1-1-1---|
C|------------------------------------|
  sun (just save me) you're the only

D|--------------------------------------------|
A|--------------------------------------------|
F|--10-10-10-10-10-10-10-10-5-5-5-5-5-5-5-5---|
C|--10-10-10-10-10-10-10-10-5-5-5-5-5-5-5-5---|
G|---8--8--8--8--8--8--8--8-3-3-3-3-3-3-3-3---|
C|--------------------------------------------|
   one    who can pull me out save me from

D|------------------------------------|
A|------------------------------------|
F|--7-7-7-7-7-7-7-7-5-5-5-5-5-5-5-5---|
C|--7-7-7-7-7-7-7-7-5-5-5-5-5-5-5-5---|
G|--5-5-5-5-5-5-5-5-3-3-3-3-3-3-3-3---|
C|------------------------------------|
myself just save me   just save me

Bridge:
D|------------------------------------|
A|------------------------------------|
F|--3--3-3-3--3--3---5--5-5-5--5--5---|
C|--3--3-3-3--3--3---5--5-5-5--5--5---|
G|--1--1-1-1--1--1---3--3-3-3--3--3---|
C|------------------------------------|
   lost my faith    lost my way

D|------------------------------------|
A|------------------------------------|
F|--7------10-------10------12--------|
C|--7------10-------10------12--------|
G|--5-------7--------8------10--------|
C|------------------------------------|
I need to feel you here again

D|------------------------------------|
A|------------------------------------|
F|--3-3-3-3-3-3-3-3-5-5-5-5-5-5-5-5---|
C|--3-3-3-3-3-3-3-3-5-5-5-5-5-5-5-5---|
G|--1-1-1-1-1-1-1-1-3-3-3-3-3-3-3-3---|
C|------------------------------------|
         just save       me

from what I've become
look what I've become
(become)

D|---------------------------------------------------|
A|---------------------------------------------------|
F|--10-10-10-10-10-10-10-10-10-10-10-10-10-10-10-10--|
C|--10-10-10-10-10-10-10-10-10-10-10-10-10-10-10-10--|
G|---8--8--8--8--8--8--8--8--7--7--7--7--7--7--7--7--|
C|---------------------------------------------------|

D|------------------------------------|
A|------------------------------------|
F|--7-7-7-7-7-7-7-7-3-3-3-3-3-3-3-3---|
C|--7-7-7-7-7-7-7-7-3-3-3-3-3-3-3-3---|
G|--5-5-5-5-5-5-5-5-1-1-1-1-1-1-1-1---|
C|------------------------------------|
                        I bleed for

D|--------------------------------------------|
A|--------------------------------------------|
F|--10-10-10-10-10-10-10-10-5-5-5-5-5-5-5-5---|
C|--10-10-10-10-10-10-10-10-5-5-5-5-5-5-5-5---|
G|---8--8--8--8--8--8--8--8-3-3-3-3-3-3-3-3---|
C|--------------------------------------------|
   you         I bleed for you    I bleed for

D|------------------------------------|
A|------------------------------------|
F|--7-7-7-7-7-7-7-7-3-3-3-3-3-3-3-3---|
C|--7-7-7-7-7-7-7-7-3-3-3-3-3-3-3-3---|
G|--5-5-5-5-5-5-5-5-1-1-1-1-1-1-1-1---|
C|------------------------------------|
       you

Chorus 3:
D|---------------------------------------------------|
A|---------------------------------------------------|
F|--10-10-10-10-10-10-10-10-10-10-10-10-10-10-10-10--|
C|--10-10-10-10-10-10-10-10-10-10-10-10-10-10-10-10--|
G|---8--8--8--8--8--8--8--8--7--7--7--7--7--7--7--7--|
C|---------------------------------------------------|
      what have I become (just save me)

D|------------------------------------|
A|------------------------------------|
F|--7-7-7-7-7-7-7-7-3-3-3-3-3-3-3-3---|
C|--7-7-7-7-7-7-7-7-3-3-3-3-3-3-3-3---|
G|--5-5-5-5-5-5-5-5-1-1-1-1-1-1-1-1---|
C|------------------------------------|
can't face the morning sun (just save me)

D|--------------------------------------------|
A|--------------------------------------------|
F|--10-10-10-10-10-10-10-10-5-5-5-5-5-5-5-5---|
C|--10-10-10-10-10-10-10-10-5-5-5-5-5-5-5-5---|
G|---8--8--8--8--8--8--8--8-3-3-3-3-3-3-3-3---|
C|--------------------------------------------|
        now I'm screaming out   save me from

D|------------------------------------|
A|------------------------------------|
F|--7-7-7-7-7-7-7-7-3-3-3-3-3-3-3-3---|
C|--7-7-7-7-7-7-7-7-3-3-3-3-3-3-3-3---|
G|--5-5-5-5-5-5-5-5-1-1-1-1-1-1-1-1---|
C|------------------------------------|
myself just save me     what have I

D|---------------------------------------------------|
A|---------------------------------------------------|
F|--10-10-10-10-10-10-10-10-10-10-10-10-10-10-10-10--|
C|--10-10-10-10-10-10-10-10-10-10-10-10-10-10-10-10--|
G|---8--8--8--8--8--8--8--8--7--7--7--7--7--7--7--7--|
C|---------------------------------------------------|
  become

D|------------------------------------|
A|------------------------------------|
F|--7-7-7-7-7-7-7-7-3-3-3-3-3-3-3-3---|
C|--7-7-7-7-7-7-7-7-3-3-3-3-3-3-3-3---|
G|--5-5-5-5-5-5-5-5-1-1-1-1-1-1-1-1---|
C|------------------------------------|
become              you're the only

D|--------------------------------------------|
A|--------------------------------------------|
F|--10-10-10-10-10-10-10-10-5-5-5-5-5-5-5-5---|
C|--10-10-10-10-10-10-10-10-5-5-5-5-5-5-5-5---|
G|---8--8--8--8--8--8--8--8-3-3-3-3-3-3-3-3---|
C|--------------------------------------------|
    one    who can pull me out  save me from

D|------------------------------------|
A|------------------------------------|
F|--3-3-3-3-3-3-3-3-5-5-5-5-5-5-5-5---|
C|--3-3-3-3-3-3-3-3-5-5-5-5-5-5-5-5---|
G|--1-1-1-1-1-1-1-1-3-3-3-3-3-3-3-3---|
C|------------------------------------|
myself just save me       just save

D|---------------------------------------------------------------------------------------|
A|---------------------------------------------------------------------------------------|
F|---------------------------------------------------------------------------------------|
C|--10-12-12-10-12-12-10-12-12-10-12-12-12--12--10-12-12-10-12-12-10-12-12-10-12-12--12--|
G|--10-12-12-10-12-12-10-12-12-10-12-12-12--12--10-12-12-10-12-12-10-12-12-10-12-12--12--|
C|--10-12-12-10-12-12-10-12-12-10-12-12-12--12--10-12-12-10-12-12-10-12-12-10-12-12--12--|
    me

D|---------------------------------------------------------------------------------------|
A|---------------------------------------------------------------------------------------|
F|---------------------------------------------------------------------------------------|
C|--10-12-12-10-12-12-10-12-12-10-12-12-12--12--10-12-12-10-12-12-10-12-12-10-12-12--12--|
G|--10-12-12-10-12-12-10-12-12-10-12-12-12--12--10-12-12-10-12-12-10-12-12-10-12-12--12--|
C|--10-12-12-10-12-12-10-12-12-10-12-12-12--12--10-12-12-10-12-12-10-12-12-10-12-12--12--|

questions, comments, corrections, death threats, etc.: chchanga@gmail.com
Добавлено: 11.06.2012
Другие материалы по этой песне:
  • Аккорды и текст

Страница создана 11.06.2012
http://primanota.ru/like-a-storm/just-save-me-chords.htm
Привет, Гость.
Предлагаем пройти революционный курс по гитаре.
Подарок от PrimaNota.Ru, забирай!