PrimaNota.ru - самый крупный в мире бесплатный архив песенных текстов, аккордов, табулатур и нот


Like A Storm - Gangstas Paradise - таба, видео

Регистрация Запомнить меня
Войти через:  Facebook Google Twitter Vk Yandex Mail.ru

Like A Storm - Gangstas Paradise - таба, видео

Печатать
Просмотров: 285
Уроки эстрадного вокала в Санкт-Петербурге
Like A Storm - "Gangstas Paradise"
Tuning - Double Drop C
tabbed by jjhand


Intro - 2x, two guitars (low string is Guitar 1, second is high notes)

c|-12------12------|-12------12------|-11------11------|-12--------------|
A|-----------------|-----------------|-----------------|-------10--------|
F|-----------------|-----------------|-----------------|-----------------|
C|-----------------|-----------------|-----------------|-----------------|
G|-----------------|-----------------|-----------------|-----------------|
C|-8-8-8-8-8-8-8-8-|-5-5-5-5-5-5-5-5-|-7-7-7-7-7-7-7-7-|-0-0-0-0-0-0-0-0-|



Pre-Verse/Chorus 1
c|-----------------|-----------------|-----------------|-----------------|
A|-----------------|-----------------|-----------------|-----------------|
F|-----------------|-----------------|-----------------|-----------------|
C|-----------------|-----------------|-----------------|-----------------|
G|-8-8-8-8-8-8-8-8-|---5-5---5---5---|-7-7-7-7-7-7-7-7-|-0-0-0-0-3-2-0---|
C|-8-8-8-8-8-8-8-8-|---5-5---5---5---|-7-7-7-7-7-7-7-7-|-0-0-0-0-3-2-0---|

c|------------------|----------------|-----------------|-----------------|
A|------------------|----------------|-----------------|-----------------|
F|------------------|----------------|-----------------|-----------------|
C|------------------|----------------|-----------------|---PM------------|
G|-8-8-8-8-8-8-8/10-|-10-----5-------|-7-7-7-7-7-7-7-7-|---0-0---0-0-0---|
C|-8-8-8-8-8-8-8/10-|-10-----5-------|-7-7-7-7-7-7-7-7-|---0-0---0-0-0---|


Verse - 1:36
   play 3x           4th bar
c|-----------------|-------------------|
A|-------5-5-5-6-6-|-------8-8-8-10-10-|
F|-7-7-7-----------|-7-7-7-------------|
C|-----------------|-------------------|  repeat the 3x bar then 
G|-----------------|-------------------|  rest 1 bar before chorus
C|-----------------|-------------------|


Play Chorus (above)


Play verse 2 same as the first (rest 4 bars then play the 1:36 part)


Chorus 2 riff

c|------------|-----------------|------------|-----------------|
A|------------|-----------------|------------|-----------------|
F|------------|-----------------|------------|-----------------|
C|------------|-----------------|------------|-----------------|
G|-888----8---|-5---5-5---------|-777----7---|-0--0-0--8-7-5---|
C|-888----8---|-5---5-5---------|-777----7---|-0--0-0----------|
   all PM********************************************

c|------------|-----------------|------------|-----------------|
A|------------|-----------------|------------|-----------------|
F|------------|-----------------|------------|-----------------|
C|------------|-----------------|------------|-----------------|
G|-888----8---|-5---5-5---------|-777----7---|-0--0-0----------|
C|-888----8---|-5---5-5---------|-777----7---|-0--0-0----------|
   all PM********************************************

Play Chorus 1 2x


Bridge
  Guitar 1
|---------------|----------------|---------------|---------------|
|---------------|----------------|---------------|---------------|
|---------------|----------------|---------------|---------------|
|---------------|----------------|---------------|---------------|
|-0-0----0-0----|-0-0----0-0---0-|-0-0----0-0----|-0-0----0-0----|
|-0-0----0-0----|-0-0----0-0---0-|-0-0----0-0----|-0-0----0-0----|
|
|  Guitar 2 - softly
|-0-0-0-0-0-0-0-0-|-0-0-0-0-0-0-0-0---|-0-0-0-0-0-0-0-0-|-0-0-0-0-0-0-0-0-|
|-15--15--15--15--|-18--18--18--17p15-|-14--14--14--14--|-15--15--10--10--|
|-----------------|-------------------|-----------------|-----------------|
|-----------------|-------------------|-----------------|-----------------|
|-----------------|-------------------|-----------------|-----------------|
|-----------------|-------------------|-----------------|-----------------|


Guitar 1
|---------------|----------------|---------------|---------------|
|---------------|----------------|---------------|---------------|
|---------------|----------------|---------------|---------------|
|---------------|----------------|---------------|---------------|
|-0-0----0-0----|-0-0-0-0-0-0----|-0-0----0-0----|---------------|
|-0-0----0-0----|-0-0-0-0-0-0----|-0-0----0-0----|---------------|
|
| Guitar 2 is the same as above



Solo - Note that rhythm plays the Chorus chords

|-0---12---0--14---0---|-15---0--/17~~--|--0--12---0--14---0---|-15---0-/19~~---|
|---10------10------10-|-------10-------|---10------10------10-|-------10-------|
|----------------------|----------------|----------------------|----------------|
|----------------------|----------------|----------------------|----------------|
|----------------------|----------------|----------------------|----------------|
|----------------------|----------------|----------------------|----------------|

|------12-14br15-|-12~----12-14br15-12-|-11----11-12-13--|
|----10----------|------10-------------|-----------------|
|----------------|---------------------|-----------------|
|----------------|---------------------|-----------------|
|----------------|---------------------|-----------------|
|----------------|---------------------|-----------------|

|------------14-15-17-17b19----|-19~~~
|-10-12-13-15------------------|------
|------------------------------|------
|------------------------------|------
|------------------------------|------
|------------------------------|------

Play Chorus 2x

Play Bridge to end song



KEY
************************************

| /   slide up
| \   slide down
| h   hammer-on
| p   pull-off
| ~   vibrato
| +   harmonic
| x   Mute note
| b   Bend
| pb  Pre-bend
| br  Bend release

************************************
Добавлено: 01.09.2015
Другие материалы по этой песне:
  • Аккорды и текст

Страница создана 01.09.2015
http://primanota.ru/like-a-storm/gangstas-paradise-chords.htm
Привет, Гость.
Предлагаем пройти революционный курс по гитаре.
Подарок от PrimaNota.Ru, забирай!