PrimaNota.ru - самый крупный в мире бесплатный архив песенных текстов, аккордов, табулатур и нот


Like A Storm - Chemical Infatuation - таба, видео

Регистрация Запомнить меня
Войти через:  Facebook Google Twitter Vk Yandex Mail.ru

Like A Storm - Chemical Infatuation - таба, видео

Печатать
Просмотров: 99
Song: Chemical Infatuation
Artist: Like A Storm
Album: The End of the Beginning
more Like A Storm tabs at likeastormfans.webs.com

Tuning: Drop C (C G C F A d)

Guitar 1 (lead)
Intro:
d|-------------------------------------------------------------10------|
A|--9---10--9---10--9---10--9------9---10--9---10--9---10--9-----------|
F|------------------------------9--------------------------------------| x2
C|---------------------------------------------------------------------|
G|---------------------------------------------------------------------|
C|---------------------------------------------------------------------|

Verse:
d|------------7-----------7-----------7-----------7------|
A|---------5-----5-----5-----5-----5-----5-----5---------|
F|------7-----------7-----------7-----------7------------|
C|-------------------------------------------------------|
G|-------------------------------------------------------|
C|-------------------------------------------------------|
well I don't know the face when I look in the mirror

d|-----------------------------------|
A|--9---10--9---10--9---10--9--------|
F|------------------------------9----|
C|-----------------------------------|
G|-----------------------------------|
C|-----------------------------------|
                             you're the

d|---------7-----------7-----------7-----------7------|
A|------5-----5-----5-----5-----5-----5-----5---------|
F|---7-----------7-----------7-----------7------------|
C|----------------------------------------------------|
G|----------------------------------------------------|
C|----------------------------------------------------|
     only one  that can make  things  clearer

d|------------------------------10---|
A|--9---10--9---10--9---10--9--------|
F|-----------------------------------|
C|-----------------------------------|
G|-----------------------------------|
C|-----------------------------------|

Chorus:
d|---------------------------------------------------------------------------|
A|---------------------------------------------------------------------------|
F|------5-5-5-5-5-5-5-5-9-9-9-9-9-9-9-9-9-9-9-9-9-9-9-14-14-13-13-11-11-9-9--|
C|------5-5-5-5-5-5-5-5-7-7-7-7-7-7-7-7-9-9-9-9-9-9-9--x--x--x--x--x--x-x-x--|
G|------3-3-3-3-3-3-3-3-5-5-5-5-5-5-5-5-7-7-7-7-7-7-7-12-12-11-11--9--9-7-7--|
C|---------------------------------------------------------------------------|
I got a chemical  infatuation  a chemical addiction to you

d|---------3----------5-----------------------------|
A|-------3-----3----5-----5-------------------------|
F|-----5----------7---------------------------------|
C|-----------------------------------12~~11~~5~~~~--|
G|--------------------------------------------------|
C|--------------------------------------------------|
you're the only one that gets me through       I'm a slave to

d|-------------------------------------------------------------10------|
A|--9---10--9---10--9---10--9------9---10--9---10--9---10--9-----------|
F|------------------------------9--------------------------------------|
C|---------------------------------------------------------------------|
G|---------------------------------------------------------------------|
C|---------------------------------------------------------------------|
  you             I'm a slave to you

Verse 2: (same as verse 1)
I'm hooked on the taste of your beautiful pill
(lost my soul lost my soul)
there's an emptiness that only you can fill

Chorus 2:
d|---------------------------------------------------------------------------|
A|---------------------------------------------------------------------------|
F|------5-5-5-5-5-5-5-5-9-9-9-9-9-9-9-9-9-9-9-9-9-9-9-14-14-13-13-11-11-9-9--|
C|------5-5-5-5-5-5-5-5-7-7-7-7-7-7-7-7-9-9-9-9-9-9-9--x--x--x--x--x--x-x-x--|
G|------3-3-3-3-3-3-3-3-5-5-5-5-5-5-5-5-7-7-7-7-7-7-7-12-12-11-11--9--9-7-7--|
C|---------------------------------------------------------------------------|
I got a chemical  infatuation  a chemical addiction to you

d|---------3----------5-----------------------------|
A|-------3-----3----5-----5-------------------------|
F|-----5----------7---------------------------------|
C|--------------------------------------------------|
G|--------------------------------------------------|
C|--------------------------------------------------|
you're the only one that gets me

d|---------3----------5-----------------------------|
A|-------3-----3----5-----5-------------------------|
F|-----5----------7---------------------------------|
C|-----------------------------------12~~11~~5~~~~--|
G|--------------------------------------------------|
C|--------------------------------------------------|
       the only one that gets me through        I'm a slave to

Bridge:
d|-----------------10--------10----12--------------------|
A|-----12----10--------------------------10----12--------|
F|-------------------------------------------------------|
C|-------------------------------------------------------|
G|-------------------------------------------------------|
C|-------------------------------------------------------|
   you                                          I'm a slave to

d|-----------------10--------10----12--------------------|
A|-----12----10--------------------------10----12--------|
F|-------------------------------------------------------|
C|-------------------------------------------------------|
G|-------------------------------------------------------|
C|-------------------------------------------------------|
   you

d|--------------10--------------10----12--------------------|
A|--12----10--------------------------------10----12--------|
F|----------------------------------------------------------|
C|----------------------------------------------------------|
G|----------------------------------------------------------|
C|----------------------------------------------------------|
     all alone I fade to nothing all alone I fell in you

d|--------------10----------------10----12--------------------|
A|--12----10----------------------------------10----12--------|
F|------------------------------------------------------------|
C|------------------------------------------------------------|
G|------------------------------------------------------------|
C|------------------------------------------------------------|
     all alone I hear you calling  all along I've needed you

d|--------------10--------------10----12--------------------|
A|--12----10--------------------------------10----12--------|
F|----------------------------------------------------------|
C|----------------------------------------------------------|
G|----------------------------------------------------------|
C|----------------------------------------------------------|
     all alone I fade to nothing all alone I fell in you

d|--------------10----------------10----12--------------------|
A|--12----10----------------------------------10----12--------|
F|------------------------------------------------------------|
C|------------------------------------------------------------|
G|------------------------------------------------------------|
C|------------------------------------------------------------|
     all alone I hear you calling  all along I've needed you

d|-------------------------------------------------------------10------|
A|--9---10--9---10--9---10--9------9---10--9---10--9---10--9-----------|
F|------------------------------9--------------------------------------|
C|---------------------------------------------------------------------|
G|---------------------------------------------------------------------|
C|---------------------------------------------------------------------|

d|-------------------------------------------------------------10------|
A|--9---10--9---10--9---10--9------9---10--9---10--9---10--9-----------|
F|------------------------------9--------------------------------------|
C|---------------------------------------------------------------------|
G|---------------------------------------------------------------------|
C|---------------------------------------------------------------------|

Chorus 3:
d|---------------------------------------------------------------------------|
A|---------------------------------------------------------------------------|
F|------5-5-5-5-5-5-5-5-9-9-9-9-9-9-9-9-9-9-9-9-9-9-9-14-14-13-13-11-11-9-9--|
C|------5-5-5-5-5-5-5-5-7-7-7-7-7-7-7-7-9-9-9-9-9-9-9--x--x--x--x--x--x-x-x--|
G|------3-3-3-3-3-3-3-3-5-5-5-5-5-5-5-5-7-7-7-7-7-7-7-12-12-11-11--9--9-7-7--|
C|---------------------------------------------------------------------------|
I got a chemical  infatuation  a chemical addiction to you

d|-------------------------------------------------------------------|
A|-------------------------------------------------------------------|
F|----5-5-5-5-5-5-5-5-9-9-9-9-9-9-9-9-9------9-------9-----9---9-----|
C|----5-5-5-5-5-5-5-5-7-7-7-7-7-7-7-7-9------9-------9-----9---7-----|
G|----3-3-3-3-3-3-3-3-5-5-5-5-5-5-5-5-7------7-------7-----7---5-----|
C|-------------------------------------------------------------------|
   adrenaline intoxication      I've lost myself in you

d|---------------------------------------------------------------|
A|---------------------------------------------------------------|
F|--5-5-5-5-5-5-5-5-9-9-9-9-9-9-9-9-2-------------------9----9---|
C|--5-5-5-5-5-5-5-5-7-7-7-7-7-7-7-7-2-----------5-------9----9---|
G|--3-3-3-3-3-3-3-3-5-5-5-5-5-5-5-5-0-----------5-------7----7---|
C|----------------------------------------------5----------------|
    chemical  infatuation     I've given everything to you

d|---------3----------5-----------------------------|
A|-------3-----3----5-----5-------------------------|
F|-----5----------7---------------------------------|
C|--------------------------------------------------|
G|--------------------------------------------------|
C|--------------------------------------------------|
you're the only one that gets me

d|---------3----------5-----------------------------|
A|-------3-----3----5-----5-------------------------|
F|-----5----------7---------------------------------|
C|--------------------------------------------------|
G|--------------------------------------------------|
C|--------------------------------------------------|
       the only one that gets me

d|---------3----------5-----------------------------|
A|-------3-----3----5-----5-------------------------|
F|-----5----------7---------------------------------|
C|-----------------------------------12~~11~~5~~~~--|
G|--------------------------------------------------|
C|--------------------------------------------------|
you're the only one that gets me through        I'm a slave to

d|-------------------------------------------------------------10------|
A|--9---10--9---10--9---10--9------9---10--9---10--9---10--9-----------|
F|------------------------------9--------------------------------------|
C|---------------------------------------------------------------------|
G|---------------------------------------------------------------------|
C|---------------------------------------------------------------------|
  you             I'm a slave to you                I'm a slave to

d|-------------------------------------------------------------10------|
A|--9---10--9---10--9---10--9------9---10--9---10--9---10--9-----------|
F|------------------------------9--------------------------------------|
C|---------------------------------------------------------------------|
G|---------------------------------------------------------------------|
C|---------------------------------------------------------------------|
  you             I'm a slave to you

Outro:
d|--------------------------------------------------------------------|
A|--------------------------------------------------------------------|
F|--------------------------------------------------------------------|
C|--2-------------------------------2---------------------------------|
G|--2-------------------------------2---------------------------------|
C|--2-------------------------------2---------------------------------|
    all alone I fade to nothing     all along I've needed you


Guitar 2 (rhythm)
Intro: (on the slides, you quickly slide up to the 12th fret then back down)
d|---------------------------------------------------------------------|
A|---------------------------------------------------------------------|
F|---------------------------------------------------------------------| x2
C|--2---3-/-2---3-/-2---3-/-2---3-/-2---3-/-2---3-/-2---3-/-2---3-/----|
G|--2---3-/-2---3-/-2---3-/-2---3-/-2---3-/-2---3-/-2---3-/-2---3-/----|
C|--2---3-/-2---3-/-2---3-/-2---3-/-2---3-/-2---3-/-2---3-/-2---3-/----|

Verse:
d|---------------------------------------------------------------------|
A|---------------------------------------------------------------------|
F|---------------------------------------------------------------------|
C|-------------------------------------------------------/-------------|
G|-------------------------------------------------------/-------------|
C|-------------------------------------------------------/-------------|
    well I don't know the face when I look in the mirror

d|-------------------------------------|
A|-------------------------------------|
F|-------------------------------------|
C|--2---3-/-2---3-/-2---3-/-2---3-/----|
G|--2---3-/-2---3-/-2---3-/-2---3-/----|
C|--2---3-/-2---3-/-2---3-/-2---3-/----|

d|---------------------------------------------------------------------|
A|---------------------------------------------------------------------|
F|---------------------------------------------------------------------|
C|-------------------------------------------------------/-------------|
G|-------------------------------------------------------/-------------|
C|-------------------------------------------------------/-------------|
      you're the only one that can make things clearer

d|-------------------------------------|
A|-------------------------------------|
F|-------------------------------------|
C|--2---3-/-2---3-/-2---3-/-2---3-/----|
G|--2---3-/-2---3-/-2---3-/-2---3-/----|
C|--2---3-/-2---3-/-2---3-/-2---3-/----|

Chorus:
d|-------------------------------------------------------------------------|
A|-------------------------------------------------------------------------|
F|------5-5-5-5-5-5-5-5-7-7-7-7-7-7-7-7---------------------------7-7-5----|
C|------5-5-5-5-5-5-5-5-7-7-7-7-7-7-7-7-2-2-2-2-2-2-2-2-2-2-2-2-2-7-7-5----|
G|------3-3-3-3-3-3-3-3-5-5-5-5-5-5-5-5-2-2-2-2-2-2-2-2-2-2-2-2-2-5-5-3----|
C|--------------------------------------2-2-2-2-2-2-2-2-2-2-2-2-2----------|
I got a chemical  infatuation       a chemical addiction to you

d|----------------------------------------------------------------|
A|----------------------------------------------------------------|
F|--5-5-5-5-5-5-5-5-7-7-7-7-7-7-7-7-2-----2-----2-----------------|
C|--5-5-5-5-5-5-5-5-7-7-7-7-7-7-7-7-2-----2-----2--------------/--|
G|--3-3-3-3-3-3-3-3-5-5-5-5-5-5-5-5-0-----0-----0--------------/--|
C|-------------------------------------------------------------/--|
  you're the only one that gets me through        I'm a slave to

d|---------------------------------------------------------------------|
A|---------------------------------------------------------------------|
F|---------------------------------------------------------------------|
C|--2---3-/-2---3-/-2---3-/-2---3-/-2---3-/-2---3-/-2---3-/-2---3-/----|
G|--2---3-/-2---3-/-2---3-/-2---3-/-2---3-/-2---3-/-2---3-/-2---3-/----|
C|--2---3-/-2---3-/-2---3-/-2---3-/-2---3-/-2---3-/-2---3-/-2---3-/----|
  you              I'm a slave to you

Verse 2: (same as verse 1)
I'm hooked on the taste of your beautiful pill
(lost my soul lost my soul)
there's an emptiness that only you can fill

Chorus 2:
d|-------------------------------------------------------------------------|
A|-------------------------------------------------------------------------|
F|------5-5-5-5-5-5-5-5-7-7-7-7-7-7-7-7---------------------------7-7-5----|
C|------5-5-5-5-5-5-5-5-7-7-7-7-7-7-7-7-2-2-2-2-2-2-2-2-2-2-2-2-2-7-7-5----|
G|------3-3-3-3-3-3-3-3-5-5-5-5-5-5-5-5-2-2-2-2-2-2-2-2-2-2-2-2-2-5-5-3----|
C|--------------------------------------2-2-2-2-2-2-2-2-2-2-2-2-2----------|
I got a chemical  infatuation       a chemical addiction to you

d|-----------------------------------|
A|-----------------------------------|
F|--5-5-5-5-5-5-5-5-7-7-7-7-7-7-7-7--|
C|--5-5-5-5-5-5-5-5-7-7-7-7-7-7-7-7--|
G|--3-3-3-3-3-3-3-3-5-5-5-5-5-5-5-5--|
C|-----------------------------------|
  you're the only one that gets me

d|---------------------------------------------------------------|
A|---------------------------------------------------------------|
F|--5-5-5-5-5-5-5-5-7-7-7-7-7-7-7-7-2-----2-----2----------------|
C|--5-5-5-5-5-5-5-5-7-7-7-7-7-7-7-7-2-----2-----2----------------|
G|--3-3-3-3-3-3-3-3-5-5-5-5-5-5-5-5-0-----0-----0----------------|
C|---------------------------------------------------------------|
         the only one that gets me through         I'm a slave to

Bridge:
d|--------7-------7-------7-------7-------7-------7-------7-------7-----|
A|------5---5---5---5---5---5---5---5---5---5---5---5---5---5---5---5---|
F|----7-------7-------7-------7-------7-------7-------7-------7---------|
C|----------------------------------------------------------------------|
G|----------------------------------------------------------------------|
C|----------------------------------------------------------------------|
  you                                                 I'm a slave to

d|--------7-------7-------7-------7-------7-------7-------7-------7-----|
A|------5---5---5---5---5---5---5---5---5---5---5---5---5---5---5---5---|
F|----7-------7-------7-------7-------7-------7-------7-------7---------|
C|----------------------------------------------------------------------|
G|----------------------------------------------------------------------|
C|----------------------------------------------------------------------|
  you

d|------7-------7-------7-------7-------7-------7-------7-------7-----|
A|----5---5---5---5---5---5---5---5---5---5---5---5---5---5---5---5---|
F|--7-------7-------7-------7-------7-------7-------7-------7---------|
C|--------------------------------------------------------------------|
G|--------------------------------------------------------------------|
C|--------------------------------------------------------------------|
    all  alone  I  fade  to nothing all  alone  I  fell  in  you

d|------7-------7-------7-------7-------7-------7-------7-------7-----|
A|----5---5---5---5---5---5---5---5---5---5---5---5---5---5---5---5---|
F|--7-------7-------7-------7-------7-------7-------7-------7---------|
C|--------------------------------------------------------------------|
G|--------------------------------------------------------------------|
C|--------------------------------------------------------------------|
    all  alone  I  hear you calling all  along  I've  needed  you

d|------7-------7-------7-------7-------7-------7-------7-------7-----|
A|----5---5---5---5---5---5---5---5---5---5---5---5---5---5---5---5---|
F|--7-------7-------7-------7-------7-------7-------7-------7---------|
C|--------------------------------------------------------------------|
G|--------------------------------------------------------------------|
C|--------------------------------------------------------------------|
    all  alone  I  fade  to nothing all  alone  I  fell  in  you

d|------7-------7-------7-------7-------7-------7-------7---------------|
A|----5---5---5---5---5---5---5---5---5---5---5---5---5---5---5---------|
F|--7-------7-------7-------7-------7-------7-------7-------7-----------|
C|----------------------------------------------------------------/-----|
G|----------------------------------------------------------------/-----|
C|----------------------------------------------------------------/-----|
    all  alone  I  hear you calling all  along  I've  needed  you

d|---------------------------------------------------------------------|
A|---------------------------------------------------------------------|
F|---------------------------------------------------------------------|
C|--2---3-/-2---3-/-2---3-/-2---3-/-2---3-/-2---3-/-2---3-/-2---3-/----|
G|--2---3-/-2---3-/-2---3-/-2---3-/-2---3-/-2---3-/-2---3-/-2---3-/----|
C|--2---3-/-2---3-/-2---3-/-2---3-/-2---3-/-2---3-/-2---3-/-2---3-/----|

d|---------------------------------------------------------------------|
A|---------------------------------------------------------------------|
F|---------------------------------------------------------------------|
C|--2---3-/-2---3-/-2---3-/-2---3-/-2---3-/-2---3-/-2---3-/-2---3-/----|
G|--2---3-/-2---3-/-2---3-/-2---3-/-2---3-/-2---3-/-2---3-/-2---3-/----|
C|--2---3-/-2---3-/-2---3-/-2---3-/-2---3-/-2---3-/-2---3-/-2---3-/----|
      all alone I fade to nothing     all alone I fell in you

Chorus 3:
d|-------------------------------------------------------------------------|
A|-------------------------------------------------------------------------|
F|------5-5-5-5-5-5-5-5-7-7-7-7-7-7-7-7---------------------------7-7-5----|
C|------5-5-5-5-5-5-5-5-7-7-7-7-7-7-7-7-2-2-2-2-2-2-2-2-2-2-2-2-2-7-7-5----|
G|------3-3-3-3-3-3-3-3-5-5-5-5-5-5-5-5-2-2-2-2-2-2-2-2-2-2-2-2-2-5-5-3----|
C|--------------------------------------2-2-2-2-2-2-2-2-2-2-2-2-2----------|
I got a chemical  infatuation       a chemical addiction to you

d|------------------------------------------------------------------|
A|------------------------------------------------------------------|
F|--5-5-5-5-5-5-5-5-7-7-7-7-7-7-7-7-------------------------7-7-5---|
C|--5-5-5-5-5-5-5-5-7-7-7-7-7-7-7-7-2------2-------2----2---7-7-5---|
G|--3-3-3-3-3-3-3-3-5-5-5-5-5-5-5-5-2------2-------2----2---5-5-3---|
C|----------------------------------2------2-------2----2-----------|
adrenaline intoxication      I've lost myself in you

d|-----------------------------------------------------------------|
A|-----------------------------------------------------------------|
F|--5-5-5-5-5-5-5-5-7-7-7-7-7-7-7-7-2------------------------------|
C|--5-5-5-5-5-5-5-5-7-7-7-7-7-7-7-7-2-----------5--------2----2----|
G|--3-3-3-3-3-3-3-3-5-5-5-5-5-5-5-5-0-----------5--------2----2----|
C|----------------------------------------------5--------2----2----|
    chemical  infatuation     I've given everything to you

d|-----------------------------------|
A|-----------------------------------|
F|--5-5-5-5-5-5-5-5-7-7-7-7-7-7-7-7--|
C|--5-5-5-5-5-5-5-5-7-7-7-7-7-7-7-7--|
G|--3-3-3-3-3-3-3-3-5-5-5-5-5-5-5-5--|
C|-----------------------------------|
  you're the only one that gets me

d|-----------------------------------|
A|-----------------------------------|
F|--5-5-5-5-5-5-5-5-7-7-7-7-7-7-7-7--|
C|--5-5-5-5-5-5-5-5-7-7-7-7-7-7-7-7--|
G|--3-3-3-3-3-3-3-3-5-5-5-5-5-5-5-5--|
C|-----------------------------------|
         the only one that gets me

d|-----------------------------------------------------------------|
A|-----------------------------------------------------------------|
F|--5-5-5-5-5-5-5-5-7-7-7-7-7-7-7-7-2-----2-----2------------------|
C|--5-5-5-5-5-5-5-5-7-7-7-7-7-7-7-7-2-----2-----2---------------/--|
G|--3-3-3-3-3-3-3-3-5-5-5-5-5-5-5-5-0-----0-----0---------------/--|
C|--------------------------------------------------------------/--|
  you're the only one that gets me through         I'm a slave to

d|---------------------------------------------------------------------|
A|---------------------------------------------------------------------|
F|---------------------------------------------------------------------|
C|--2---3-/-2---3-/-2---3-/-2---3-/-2---3-/-2---3-/-2---3-/-2---3-/----|
G|--2---3-/-2---3-/-2---3-/-2---3-/-2---3-/-2---3-/-2---3-/-2---3-/----|
C|--2---3-/-2---3-/-2---3-/-2---3-/-2---3-/-2---3-/-2---3-/-2---3-/----|
  you              I'm a slave to you              I'm a slave to

d|---------------------------------------------------------------------|
A|---------------------------------------------------------------------|
F|---------------------------------------------------------------------|
C|--2---3-/-2---3-/-2---3-/-2---3-/-2---3-/-2---3-/-2---3-/-2---3-/----|
G|--2---3-/-2---3-/-2---3-/-2---3-/-2---3-/-2---3-/-2---3-/-2---3-/----|
C|--2---3-/-2---3-/-2---3-/-2---3-/-2---3-/-2---3-/-2---3-/-2---3-/----|
  you              I'm a slave to you

Outro:
d|--------------------------------------------------------------------|
A|--------------------------------------------------------------------|
F|--------------------------------------------------------------------|
C|--2-------------------------------2---------------------------------|
G|--2-------------------------------2---------------------------------|
C|--2-------------------------------2---------------------------------|
    all alone I fade to nothing     all along I've needed you

questions, comments, corrections, death threats, etc.: chchanga@gmail.com
Добавлено: 17.07.2012
Другие материалы по этой песне:

Страница создана 17.07.2012
http://primanota.ru/like-a-storm/chemical-infatuation-chords.htm
Привет, Гость.
Предлагаем пройти революционный курс по гитаре.
Подарок от PrimaNota.Ru, забирай!