PrimaNota.ru - самый крупный в мире бесплатный архив песенных текстов, аккордов, табулатур и нот


Lightspeed Champion - Shower Your Love - таба, видео

Регистрация Запомнить меня
Войти через:  Facebook Google Twitter Vk Yandex Mail.ru

Lightspeed Champion - Shower Your Love - таба, видео

Печатать
Просмотров: 151
ive listen to this song over and over and over and ive worked out that this is a 3
song (i think) ive got as close to correct as i can so add me on myspace if you find any
and tell me so i can correct it. this is the first song ive tabbed. and ive only really 
out 2 out of the three guitars. go easy on me.

lyrics (also order of song:
verse-
these things i feel, for you,
they make, me blue,
ive been waiting, up all night
but now, its time

chorus-
shower you love on me baby,
i will do anything thing for you, for love
ive waited my whole life for,
you, you, you, you

verse- same as last

chorus- x2

solo 1-

bridge-
and now, you'll say, that you'll never le-eave me,
oh no, i hope, that this is true,

solo 2-

chorus-

end-
shower your love on me

guitar 1:
intro/verse
1--- ------ ------ -----------|
2--10--7--12-----10-----------|
3--- ------ ------ -----7--9--| x3
477- 44-99- 66-77- 44---------|
5--- ------ ------ ---55-77---|
6--- ------ ------ -----------|

chorus:
1----------------- --------------------------------------------|
2--5---5---7---7-- -9--7--5--5--5---5---5---5---7---7---7---7--|
3-6-6-6-6-7-7-7-7- 9--7--6--6--6-6-6-6-6-6-6-6-7-7-7-7-7-7-7-7-|
47---7---9---9---11--9--7--6--4---4---6---6---9---9---9---9----|
5----------------- --------------------------------------------|
6----------------- --------------------------------------------|

solo 1-
1 -----------------------------------------|
2 22232----2-5-2-7-2-22232----2-2-2-2------|
3 -----4242-2-2-2---------4242-4-4-4-424---|
4 -----------------------------------------|
5 -----------------------------------------|
6 -----------------------------------------|

bridge 1-(this is played along at the pace of lyrics)
1----------------------|
2----------------------|
36462664266222464622476
4----------------------|
5----------------------|
6----------------------|

solo 2 - (just play solo 1 for this guitar

chorus 2- same as 1st chorus but a tone (play 2 fret higher) but i dont think this
in this bit so you dont need to worry to much

end- this guitars not in this bit.

guitar 2: (this is all power chords and ive only tab the order they come in so i you
get this bit youll have to sit and play along with the music)

chorus/solos
1-------------------------------------|
2-------------------------------------|
3-------------------------------------|
4-7-8-7-5-3-5-7-8-5-5-3-5-8-7-5-3-5-7-|
5-7-8-7-5-3-5-7-8-5-5-3-5-8-7-5-3-5-7-|
6-5-6-5-3-1-3-5-6-5-3-1-5-6-5-3-1-3-5-|

bridge-
1-----------------------------------------|
2-----------------------------------------|
3-----------------------------------------|
4-11-9-11-9-11-9-7-11-7-11-9-11-7-7-12-11-|
5-11-9-11-7-11-9-7-11-7-11-9-11-7-7-12-11-|
6-9 -7-9 -5-9- 7-5-9- 5-9- 7-9- 5-5-10-9--|

chorus 2- (once again go up a tone(2 frets)if you didnt get it last nime i shall do a 
eg)
eg
1--     1-
2--     2-
3--     3-
4-7   = 4-9
5-7   = 5-9
6-5   = 6-7

outro-
1
2
3
4-9-11
5-9-11
6-7-9

guitar 3: its alls all picking and is only in the second half but if you really wanna
it then you can sit down and work it out cos im bord of typing and i havent worked it out
yet

if you wanna contact me about this just message me on my myspace
myspace : http://www.myspace.com/theofficalwadsmyspace
tabbed by : alex waddell

hope its gd
Добавлено: 02.07.2012
Другие материалы по этой песне:
  • Аккорды и текст

Страница создана 02.07.2012
http://primanota.ru/lightspeed-champion/shower-your-love-chords.htm
Привет, Гость.
Предлагаем пройти революционный курс по гитаре.
Подарок от PrimaNota.Ru, забирай!