PrimaNota.ru - самый крупный в мире бесплатный архив песенных текстов, аккордов, табулатур и нот


Lightspeed Champion - Midnight Surprise - текст песни, таба, бас-таба, видео

Регистрация Запомнить меня
Войти через:  Facebook Google Twitter Vk Yandex Mail.ru

Lightspeed Champion - Midnight Surprise - текст песни, таба, бас-таба, видео

Печатать
Просмотров: 198
Уроки эстрадного вокала в Санкт-Петербурге
Hey, someone requested that I tab this up after I mentioned it whilst commenting on a 
for the main part of the song, so here it is!
 To tell the truth, I didn't work this out myself, my guitar teacher helped me with it, 
my ears are rubbish, I cant work stuffs out!
 Anyway, here it is, it sounds pretty good to me, but this is my first tab, so go easy 
me!

Standard tuning: EADGBe

(key of E major for anyone who wants to improvise extra bits)

1st guitar

|-12—12—9-----------12----------11--------9----------|
|--9--------12—9----9---9---------9----------12---9--|
|--9----------------9------9---------9---------------|
|----------------------------------------------------|
|----------------------------------------------------|
|----------------------------------------------------|

|--12—11p9—11---9-------9---------|
|------------------12------10—9---|
|---------------------------------|
|---------------------------------|
|---------------------------------|
|---------------------------------|

|---------------------------------------------12-------|
|----------9t10------------9t10---10---12—12b(14)r12—9-|
|---9—11-----------9—11--------------------------------|
|------------------------------------------------------|
|------------------------------------------------------|
|------------------------------------------------------|

On that bit with the bend on the 12th fret, bend the note, and let it hold while you 
the 12 on the e string, before returning the bend.
 If you listen to the recording you should get what I mean. And that's it!
 Then id has a sort of slow down before the acoustic outro.

 There is also a second guitar in the background which plays during some of the breaks 
the solo.
 Listen to the recording to get the right places.

2nd Guitar
|--------------------------|
|--------------------------|
|--------------------------|
|-------------6t7----------|
|----7---9---------7-------|
|--------------------------|

|-----------------------------|
|-----------------------------|
|---------------6-------------|
|---6---7---9------9----------|
|-----------------------------|
|-----------------------------|

Tab legend:
t - trill (like rapid hammer-on/pull-offs)
b- bend
r- bend return
h- hammer-on
p- pull-off
Добавлено: 31.03.2012
Другие материалы по этой песне:
  • Аккорды и текст

Страница создана 23.02.2012
http://primanota.ru/lightspeed-champion/midnight-surprise-chords.htm
Привет, Гость.
Предлагаем пройти революционный курс по гитаре.
Подарок от PrimaNota.Ru, забирай!