PrimaNota.ru - самый крупный в мире бесплатный архив песенных текстов, аккордов, табулатур и нот


Lightning Bolt - Horsepower - бас-таба, видео

Регистрация Запомнить меня
Войти через:  Facebook Google Twitter Vk Yandex Mail.ru

Lightning Bolt - Horsepower - бас-таба, видео

Печатать
Просмотров: 101
Уроки эстрадного вокала в Санкт-Петербурге
-------------------------------------------------------------------------------
                             Horsepower - Lightning Bolt
-------------------------------------------------------------------------------
Tabbed by: AJoos
E-mail: arminjoos@yahoo.de

Tuning: EADG

Main Riff

G|---------------------------------------------------------------------------|
D|---------------------------------------------------------------------------|
A|-5h7-7-7-5-7-7-7-5-7-7-----------------------------------------------------|
E|---------------------------------------------------------------------------|

Main Riff Expansion

G|---------------------------------------------------------------------------|
D|---------------------------------------------------------------------------|
A|-5h8-8-8-5-7-7-7-5-7-7-5h8-8-8-5-7-7-7-5-7-7-3h5-5-5-3-5-5-5-3-5-5---------|
E|---------------------------------------------------------------------------|

Intermission

G|---------------------------------------------------------------------------|
D|---------------------------------------------------------------------------|
A|-7-8-10-12-13-13-7-8-10-12-13-13-7-8-10-12-13-13-12-13-15-17-18-18---------|
E|---------------------------------------------------------------------------|

Final Main Riff Variation

G|---------------------------------------------------------------------------|
D|---------------------------------------------------------------------------|
A|-7--7-7--7-7--7--7-7--7-7h8-8--8-8--8-8p5-5--5-5--5-5h7--------------------|       x2
E|---------------------------------------------------------------------------|

G|---------------------------------------------------------------------------|
D|--------7--7--------9-9--------10---10--------5---5------------------------|
A|-7--7-7--7---7--7-7--7--8--8-8----8----5--5-5---5--------------------------|       x4
E|---------------------------------------------------------------------------|

Structure: Main Riff is played the most with sometimes the expansion played after the main riff. 
           Then comes the intermission and a short wawa pedal part after and then the main riff kicks in again,
           with the extension played sometimes.
           Then sets the Final Main Riff Variation in and the song ends on the Intermission.





| /  slide up
| \  slide down
| h  hammer-on
| p  pull-off
| ~  vibrato
| +  harmonic
| x  Mute note
===============================================================================
Добавлено: 09.12.2015
Другие материалы по этой песне:
  • Аккорды и текст

Страница создана 09.12.2015
http://primanota.ru/lightning-bolt/horsepower-chords.htm
Привет, Гость.
Предлагаем пройти революционный курс по гитаре.
Подарок от PrimaNota.Ru, забирай!