PrimaNota.ru - самый крупный в мире бесплатный архив песенных текстов, аккордов, табулатур и нот


Lightning Bolt - Crown Of Storms - таба, бас-таба, видео

Регистрация Запомнить меня
Войти через:  Facebook Google Twitter Vk Yandex Mail.ru

Lightning Bolt - Crown Of Storms - таба, бас-таба, видео

Печатать
Просмотров: 141
-----------------------|CROWN OF STORMS
-----------------------|By Lightning Bolt
-------From the 2003---| Album WONDERFUL RAINBOW
-----------------------|By Brian Gibson / Brian Chippendale

This is Lightning bolt's "Crown of Storms" arranged for guitar (not CGDA bass - cello
like brian gibson plays).
Tabs exist if you want to play cello tuned bass.

IMPORTANT NOTE -
Everything is written as it should be played in standard EADGBE tuning, but since
the bass notes as well as everything else is extremely difficult, you may want to either tune
A string down a tone and a Half to F#, or tune your low E string up a tone and play that 
string instead of the 2's on the E String.  Careful not to break a string.

The Riffs are here, you'll have to listen to song to work out what to play where as well
the timing to a certain extent.  Lots of tapping involved.

Amazing Song, Enjoy.

RIFF 1
|-9-2-7-2-11-2-7-2-9-2-7-2-11-2-7-2-|-9-2-7-2-11-2-7-2-9-2-7-2-11-2-7-2-|
|-----------------------------------|-----------------------------------|
|-----------------------------------|-----------------------------------|
|-----------------------------------|-----------------------------------|
|-----------------------------------|-----------------------------------|
|-----------------------------------|-----------------------------------|

RIFF 2
|----11-2-7-2----11-2-7-2-|----11-2-7-2----11-2-7-2-|
|-------------------------|-------------------------|
|-------------------------|-------------------------|
|-------------------------|-------------------------|
|-------------------------|-------------------------|
|-2-----------2-----------|-2-----------2-----------|

|----9-2-6-2----9-2-6-2-|----9-2-6-2----9-2-6-2-|
|-----------------------|-----------------------|
|-----------------------|-----------------------|
|-----------------------|-----------------------|
|-----------------------|-----------------------|
|-2----------2----------|-2----------2----------|

|----11-2-7-2----11-2-7-2-|----11-2-7-2----11-2-7-2-|
|-------------------------|-------------------------|
|-------------------------|-------------------------|
|-------------------------|-------------------------|
|-------------------------|-------------------------|
|-2-----------2-----------|-2-----------2-----------|

|----9-2-6-2----9-2-6-2-|----9-2-6-2----9-2-6-2-|
|-----------------------|-----------------------|
|-----------------------|-----------------------|
|-----------------------|-----------------------|
|-----------------------|-----------------------|
|-2----------2----------|-2----------2----------|

RIFF 3
|----6-2-4-2----6-2-4-2-|----6-2-4-2----6-2-4-2-|
|-----------------------|-----------------------|
|-----------------------|-----------------------|
|-----------------------|-----------------------|
|-----------------------|-----------------------|
|-2----------2----------|-2----------2----------|

|----9-2-6-2----9-2-6-2-|----9-2-6-2----9-2-6-2-|
|-----------------------|-----------------------|
|-----------------------|-----------------------|
|-----------------------|-----------------------|
|-----------------------|-----------------------|
|-2----------2----------|-2----------2----------|

|----6-2-4-2----6-2-4-2-|----6-2-4-2----6-2-4-2-|
|-----------------------|-----------------------|
|-----------------------|-----------------------|
|-----------------------|-----------------------|
|-----------------------|-----------------------|
|-2----------2----------|-2----------2----------|

|----4-2-4-2----4-2-4-2-|----4-2-4-2----4-2-4-2-|
|-----------------------|-----------------------|
|-----------------------|-----------------------|
|-----------------------|-----------------------|
|-----------------------|-----------------------|
|-2----------2----------|-2----------2----------|

RIFF 4 (During Vocal bits)
|-----------|-----------|
|-----------|-----------|
|-----------|-----------|
|-----------|-----------|
|-----------|-----------|
|-2----2----|-2----2----|

RIFF(S) 5 - 	You will have to work out which of these riffs goes where in this section,
		but that should be straightforward.
		Sometimes more than one bass note is played.
|----6-----6--|----6-----6--|
|----7-----7--|----7-----7--|
|-------------|-------------|
|-------------|-------------|
|-------------|-------------|
|-2-----2-----|-2-----2-----|

|----7-----7--|----7-----7--|
|----7-----7--|----7-----7--|
|-------------|-------------|
|-------------|-------------|
|-------------|-------------|
|-2-----2-----|-2-----2-----|

|----11-----11--|----11-----11--|
|---------------|---------------|
|----11-----11--|----11-----11--|
|---------------|---------------|
|---------------|---------------|
|-2------2------|-2------2------|

|----9-----9--|----9-----9--|
|----7-----7--|----7-----7--|
|-------------|-------------|
|-------------|-------------|
|-------------|-------------|
|-2-----2-----|-2-----2-----|

|---------------|---------------|
|-----7------7--|-----7------7--|
|----10-----10--|----10-----10--|
|---------------|---------------|
|---------------|---------------|
|-2------2------|-2------2------|

RIFF 6
|-------6-----|-9------------------|
|-7-----------|--------------------|
|-------------|--------------------|
|-------------|--------------------|
|-------------|--------------------|
|---2-2---2-2-|------2-2-2-2-2-2-2-|

|-------6-----|--------------------|
|-7-----------|-7------------------|
|-------------|--------------------|
|-------------|--------------------|
|-------------|--------------------|
|---2-2---2-2-|------2-2-2-2-2-2-2-|

RIFF 7 (END) - FINISHES WITH FEEDBACK
|-------6-----|-9--------*|
|-7-----------|----------*|
|-------------|----------*|
|-------------|----------*|
|-------------|----------*|
|---2-2---2-2-|----------*|
Добавлено: 09.04.2012
Другие материалы по этой песне:
  • Аккорды и текст

Страница создана 15.03.2012
http://primanota.ru/lightning-bolt/crown-of-storms-chords.htm
Привет, Гость.
Предлагаем пройти революционный курс по гитаре.
Подарок от PrimaNota.Ru, забирай!