PrimaNota.ru - самый крупный в мире бесплатный архив песенных текстов, аккордов, табулатур и нот


Lightnin Hopkins - Lightnin Jump - таба, видео

Регистрация Запомнить меня
Войти через:  Facebook Google Twitter Vk Yandex Mail.ru

Lightnin Hopkins - Lightnin Jump - таба, видео

Печатать
Просмотров: 118
-------------------------------------------------------------------------------
                 LIGHTNIN' JUMP - LIGHTNIN' HOPKINS
-------------------------------------------------------------------------------

https://www.youtube.com/watch?v=RNC4ZBfNDy0

Great song, legendary artist and not overly hard to play once you get the hang of the shuffle bass.
Tabbed by ear so this might not be 100% accurate but it sounds pretty good to me. This is the entire song
tabbed. I have a lot of time on my hands... There are sure to me some errors so post corrections if you 
want. 

Tabbed by: Noah Parrella
E-mail: noah.b-p@hotmail.com

Tuning: Standard

Capo: 4th fret [frets relative to capo]

************************************

| /   slide up
| \   slide down
| h   hammer-on
| p   pull-off
| ~   vibrato
| +   harmonic
| x   Mute note
| b   Bend
| pb  Pre-bend
| br  Bend release
| pbr Pre-bend release
| brb Bend release bend

************************************


e|-----------------------------0---------------------------------------------|
B|-----------------------------/5--0---------(2)-----------------------------|
G|-----------------------------/6--\4--2-------------------------------------|
D|----------------------------------------4----------------------------------|
A|-----------0--0--2--3------------------------------------------------------|
E|-----2--2--------------0--2---------------------0-0--2---------------------|

e|---------------------------------------------------------------------------|
B|---------------------------------------------------------------------------|
G|---------------------------------------------------------------------------|
D|----------------4-----4------------4-----4---------------------------------|
A|---------------------------------------------------------------------------|
E|----------------2--2--2--0-0--2----2--2--2--0-0--2-------------------------|

e|---------------------------------------------------------------------------|
B|---------------------------------------------------------------------------|
G|-2-----2-----------2-----2-----------2-----2-----------3-----3-------------|
D|-4-----4-----------4-----4-----------4-----4-----------4-----4-------------|
A|---------------------------------------------------------------------------|
E|-2--2--2--0-0--2---2--2--2--0-0--2---2--2--2--0-0--2---2--2--2--0-0--2-----|

e|-2-----2-----------0-----0-------------------------------------------------|
B|-------------------------------------2-----2-------------------------------|
G|---------------------------------------------------------------------------|
D|-4-----4-----------4-----4-----------4-----4-------------------------------|
A|---------------------------------------------------------------------------|
E|-2--2--2--0-0--2---2--2--2--0-0--2---2--2--2--0-0--2-----------------------|

e|---------------------------------------------------------------------------|
B|---------------------------------------------------------------------------|
G|-------2--b4--------2--pb4--------2--b4-b4-b4-b4-b4-b4-b4-4--2-----2-------|
D|----4------------4-------------4--------------------------------4-----4----|
A|---------------------------------------------------------------------------|
E|-2------------2-------------2----------------------------------------------|

That's what I'm talkin' 'bout

e|---------------------------------------------------------------------------|
B|---------------------------------------------------------------------------|
G|------------2--------------------------------------------------------------|
D|------------4---------4-----4-4---------4-----4-4--------------------------|
A|---------------------------------------------------------------------------|
E|---------------0--2---2--2--2--0-0--2---2--2--2--0-0--2--------------------|

Go ahead on and dance

e|---------------------------------------------------------------------------|
B|---------------------------------------------------------------------------|
G|---2-----2-----------2-----2----------2-----2---------3-----3--------------|
D|---4-----4-----------4-----4----------4-----4---------4-----4--------------|
A|---------------------------------------------------------------------------|
E|---2--2--2--0-0--2---2--2--2--0-0--2---2--2--2--0-0--2---2--2--2--0-0--2---|

e|----------------2-----2-----------0-----0----------------------------------|
B|---------------------------------------------------------------------------|
G|---------------------------------------------------------------------------|
D|----------------4-----4-----------4-----4----------------------------------|
A|---------------------------------------------------------------------------|
E|----------------2--2--2--0-0--2---2--2--2--0-0--2--------------------------|
 
                           I see you over there

e|-------4---5--4--5--4--5-4-5--4--5--4--5--2--2--2--2--2--2--2--------------|
B|---2/4-----4--4--4--4--4-4-4--4--4--4--4--4--4--4--4--4--4--4--------------|
G|---------------------------------------------------------------------------|
D|---------------------------------------------------------------------------|
A|--------2--2--2--2--2--2--2--2--2--2--2--2--2--2--2--2--2--2---------------|
E|---------------------------------------------------------------------------|

e|---------------------------------------------------------------------------|
B|------2--------------------------------------------------------------------|
G|-------4p2-----------------------------------------------------------------|
D|----------4--4--4----------------------------------------------------------|
A|---------------------------------------------------------------------------|
E|---2--2--2--2--2--0-0--2---------------------------------------------------|

                  Back up a little

e|---------------------------------------------------------------------------|
B|---------------------------------------------------------------------------|
G|---------------------------------------------------------------------------|
D|----------------4-----4------------4-----4---------------------------------|
A|---------------------------------------------------------------------------|
E|----------------2--2--2--0-0--2----2--2--2--0-0--2-------------------------|

                                        Dance like a man

e|---------------------------------------------------------------------------|
B|---------------------------------------------------------------------------|
G|-2-----2-----------2-----2-----------2-----2-----------2-----2-------------|
D|-4-----4-----------4-----4-----------4-----4-----------4-----4-------------|
A|---------------------------------------------------------------------------|
E|-2--2--2--0-0--2---2--2--2--0-0--2---2--2--2--0-0--2---2--2--2--0-0--2-----|

                     Take your girl around..

e|---------------------------------------------------------------------------|
B|---------------------------------------------------------------------------| Here there is meant to be a 
G|-2-----2-----------2-----2-----------2-----2-----------3-----3-------------|  slight change that cant be
D|-4-----4-----------4-----4-----------4-----4-----------4-----4-------------| done with the capo but it  
A|---------------------------------------------------------------------------| still sounds fine without it.
E|-2--2--2--0-0--2---2--2--2--0-0--2---2--2--2--0-0--2---2--2--2--0-0--2-----|

                                        Now you're danin' right

e|-2-----2-------------4---5--4--5--4--5-4-5--4--5--4--5--2--2--2--2--2--2--2|
B|------------------2/4----4--4--4--4--4-4-4--4--4--4--4--4--4--4--4--4--4--4|
G|---------------------------------------------------------------------------|
D|-4-----4-------------------------------------------------------------------|
A|----------------------2--2--2--2--2--2--2--2--2--2--2--2--2--2--2--2--2--2-|
E|-2--2--2--0-0--2-----------------------------------------------------------|

e|---------------------------------------------------------------------------|
B|------2----------------------0---------------------------------------------|
G|-------4p2----------------b4-pb4--4--2-------------------------------------|
D|----------4--4--4----------------------4-4--4------------------------------|
A|---------------------------------------------------------------------------|
E|---2--2--2--2--2--0-0--2----2--2--2--2--2--2--0-0--------------------------|


e|---------------------------------------------------------------------------|
B|---------------------------------------------------------------------------|
G|---------------------------------------------------------------------------|
D|----------------4-----4------------4-----4---------------------------------|
A|---------------------------------------------------------------------------|
E|----------------2--2--2--0-0--2----2--2--2--0-0--2-------------------------|

    
e|---------------------------------------------------------------------------|
B|---------------------------------------------------------------------------|
G|-2-----2-----------2-----2-----------3-----3-------------------------------|
D|-4-----4-----------4-----4-----------4-----4-------------------------------|
A|---------------------------------------------------------------------------|
E|-2--2--2--0-0--2---2--2--2--0-0--2---2--2--2--0-0--2-----------------------|


e|-2-----2-------------4---5--4--5--4--5-4-5--4--5--4--5--2--2--2--2--2------|
B|------------------2/4----4--4--4--4--4-4-4--4--4--4--4--4--4--4--4--4------|
G|---------------------------------------------------------------------------|
D|-4-----4-------------------------------------------------------------------|
A|----------------------2--2--2--2--2--2--2--2--2--2--2--2--2--2--2--2-------|
E|-2--2--2--0-0--2-----------------------------------------------------------|

e|---------------------------------------------------------------------------|
B|------2--------------------------------------------------------------------|
G|-------4p2-----------------------------------------------------------------|
D|----------4--4--4----------------------------------------------------------|
A|---------------------------------------------------------------------------|
E|---2--2--2--2--2--0-0--2---------------------------------------------------|

                   Yeah now we be dancin'

e|---------------------------------------------------------------------------|
B|---------------------------------------------------------------------------|
G|---------------------------------------------------------------------------|
D|----------------4-----4------------4-----4---------------------------------|
A|---------------------------------------------------------------------------|
E|----------------2--2--2--0-0--2----2--2--2--0-0--2-------------------------|

                  I'll show you how to do it             

e|---------------------------------------------------------------------------|
B|---------------------------------------------------------------------------|
G|----------------2-----2-----------2-----2-----------3-----3----------------|
D|----------------4-----4-----------4-----4-----------4-----4----------------|
A|---------------------------------------------------------------------------|
E|----------------2--2--2--0-0--2---2--2--2--0-0--2---2--2--2--0-0--2--------|

e|----------------2-----2-----------0-----0----------------------------------|
B|---------------------------------------------------------------------------|
G|---------------------------------------------------------------------------|
D|----------------4-----4-----------4-----4----------------------------------|
A|---------------------------------------------------------------------------|
E|----------------2--2--2--0-0--2---2--2--2----------------------------------|

e|---------------------------------------------------------------------------|
B|---------------------------------------------------------------------------|
G|-------2--b4--------2--pb4--------2--b4-b4-b4-b4-b4-b4-b4-b4-b4-4-2---2----|
D|----4------------4-------------4------------------------------------4---4--|
A|---------------------------------------------------------------------------|
E|-2------------2-------------2----------------------------------------------|

      Yes I know

e|---------------------------------------------------------------------------|
B|---------------------------------------------------------------------------|
G|----------------2-----2-----------2-----2-----------3-----3----------------|
D|----------------4-----4-----------4-----4-----------4-----4----------------|
A|---------------------------------------------------------------------------|
E|----------------2--2--2--0-0--2---2--2--2--0-0--2---2--2--2--0-0--2--------|

e|----------------2-----2-----------0-----0----------------------------------|
B|---------------------------------------------------------------------------|
G|---------------------------------------------------------------------------|
D|----------------4-----4-----------4-----4----------------------------------|
A|---------------------------------------------------------------------------|
E|----------------2--2--2--0-0--2---2--2--2--0-0--2--------------------------|

                         All night long

e|-------4---5--4--5--4--5-4-5--4--5--4--5--2--2--2--2--2--2--2--------------|
B|---2/4-----4--4--4--4--4-4-4--4--4--4--4--4--4--4--4--4--4--4--------------|
G|---------------------------------------------------------------------------|
D|---------------------------------------------------------------------------|
A|--------2--2--2--2--2--2--2--2--2--2--2--2--2--2--2--2--2--2---------------|
E|---------------------------------------------------------------------------|

e|---------------------------0-----------------------------------------------|
B|------2-------------------2----2-------------------------------------------|
G|-------4p2-------------------------4p2-------------------------------------|
D|----------4--4--4---------------------4--4--4------------------------------|
A|---------------------------------------------------------------------------|
E|---2--2--2--2--2--0-0--2----2--2--2--2--2--2--0-0--2-----------------------|

e|---------------------------------------------------------------------------|
B|---------------------------------------------------------------------------|
G|---------------------------------------------------------------------------|
D|----------------4-----4------------4-----4---------------------------------|
A|---------------------------------------------------------------------------|
E|----------------2--2--2--0-0--2----2--2--2--0-0--2-------------------------|

e|-----------2-----2-------0--0--0-----------------0-------------------------|
B|---------------------------------------2--2--2-2---------------------------|
G|---------------------------------------------------------------------------|
D|-----------4-----4-------4--4--4-------4--4--4-4-4-------------------------|
A|---------------------------------------------------------------------------|
E|-----------2--2--2--0-0--2--2--2--0-0--2--2--2-2-2-------------------------|

e|------------------------------0--0-----------------------------------------|
B|---2--------------------------7--5-----------------------------------------|
G|---b4-pb4-2-------------------6--6-----------------------------------------|
D|------------4--2-----------------------------------------------------------|
A|------------------4--------------------------------------------------------|
E|---------------------0--1--2-----------------------------------------------|



Добавлено: 31.07.2015
Другие материалы по этой песне:
  • Аккорды и текст

Страница создана 31.07.2015
http://primanota.ru/lightnin-hopkins/lightnin-jump-chords.htm
Привет, Гость.
Предлагаем пройти революционный курс по гитаре.
Подарок от PrimaNota.Ru, забирай!