PrimaNota.ru - самый крупный в мире бесплатный архив песенных текстов, аккордов, табулатур и нот


light in babylon - Geut - таба, видео

Регистрация Запомнить меня
Войти через:  Facebook Google Twitter Vk Yandex Mail.ru

light in babylon - Geut - таба, видео

Печатать
Просмотров: 83
-------------------------------------------------------------------------------
                             GEUT - Light in Babylon
-------------------------------------------------------------------------------

Tabbed by:   Wuschelkopf
E-mail:      thyr@bk.ru


This version sounds best to me, although I'm not sure
whether Julien mainly plays an open capo-free variant...


All with CAPO on the FIFTH / 5th fret.

Chords:

e|--0--|  |--0--|  |--0--|  |--0--|
B|--0--|  |--0--|  |--1--|  |--0--|
G|--0--|  |--0--|  |--0--|  |--2--|
D|--2--|  |--2--|  |--2--|  |--1--|
A|--2--|  |--3--|  |--3--|  |--2--|
E|--X--|  |--X--|  |--3--|  |--2--|

   Em/H    Em/C      C/G     B7/F#*

* not 100% sure about this one... Just try around.

Picking pattern goes something like this:

e|------------------------------------------|
B|-----0--------0------------0--------0-----|
G|-----0--------0------------0--------0-----|
D|-----2--------2------------2--------2-----|
A|--2-----2--2-----2--3 ~~ -----3--3--------|
E|------------------------------------------|

    Em/H              Em/C

-------------------------------------------------------------------------------


Intro:  ||  Em/H  Em/C  Em/H  Em/C  |   Am  ~  C/G   B7/F#  ||  (2x)



Em/H         Em/C
 Im tisraeh
Em/H              Em/C
 Tishaer, hakeev, hayeush, hatikva,
Am
 Im yesh galim halayla
               C/G   B7/F#
 Hageut tikach oti
               Em/H      Em/C
 El metzulot ahavatcha
Em/H    Em/C
 Shenadeda...


Am
 Eich shehalev sheli niftach
Am
 Halev shelcha nisgar
C/G                         
 Shtei sfatai noshkot lecha
B7/F#                    Em/H   Em/C   Em/H    Em/C
 Ata nimtza kvar bemakom acher
Am
 Im yesh galim halayla
               C/G   B7/F#
 Hageut tikach oti
              Em/H      Em/C  Em/H  Em/C  Am  ~  C/G   B7/F#
 El metzulot ahavatcha


Em/H**       Em/C  
 Im tishaer
Em/H              Em/C
 Tishaer, hayeush kvar mizman yealem
Am
 Im yesh galim halayla
Am             C/G    B7/F#
 Hageut tikach oti
               Em/H      Em/C
 El metzulot ahavatcha
Em/H    Em/C
 Shenadeda...


Am
 Ki eich shehalev sheli niftach
Am
 Halev shelcha nisgar
C/G                         
 Shtei sfatai noshkot lecha
B7/F#                    Em/H   Em/C   Em/H    Em/C
 Ata nimtza kvar bemakom acher


Am   C/G    B7/F#   XX   Em/H       Em/C 
Im...         tishaer iti lanetzach


Am
 Eich shehalev sheli niftach
Am
 Halev shelcha nisgar
C/G                         
 Shtei sfatai noshkot lecha
B7/F#                    Em/H   Em/C   Em/H    Em/C
 Ata nimtza kvar bemakom acher


Am
 Eich shehalev sheli niftach
Am
 Halev shelcha nisgar
C/G                         
 Shtei sfatai noshkot lecha
B7/F#                    Em/H   Em/C   Em/H    Em/C
 Ata nimtza kvar bemakom acher

-------------------------------------------------------------------------------
** strumming from here
Добавлено: 18.05.2016
Другие материалы по этой песне:
  • Аккорды и текст

Страница создана 18.05.2016
http://primanota.ru/light-in-babylon/geut-chords.htm
Привет, Гость.
Предлагаем пройти революционный курс по гитаре.
Подарок от PrimaNota.Ru, забирай!