PrimaNota.ru - самый крупный в мире бесплатный архив песенных текстов, аккордов, табулатур и нот


Ligabue - Tu Che Conosci Il Cielo - текст песни, таба, видео

Регистрация Запомнить меня
Войти через:  Facebook Google Twitter Vk Yandex Mail.ru

Ligabue - Tu Che Conosci Il Cielo - текст песни, таба, видео

Печатать
Просмотров: 114
                            Tu che conosci il cielo


 INTRO+MAIN RIFF

e|------------------------------------------------------------------|
b|--1-1-1/8-8--1-1-1/8-8--1-1-1/8--1-1-1/8--1-1---1h3----------1----|
g|--0-0-0/9-9--0-0-0/9-9--2-2-2/9--2-2-2/9--2-2--------0h2---2------|
d|--2-2-2/9-9--2-2-2/9-9--2-2-2/9--2-2-2/9--3-3-3----3-----3--------|
a|--3-3--------3-3--------0-0------0-0------------------------------|
E|------------------------------------------------------------------|

e|---------------2-3-2-2---2-----2-3-2----|
b|-3/5-3-1---3-3-3-3-3-3---3---3-3-3-3----|
g|---------2-2-2-2-2-2---2---2-2-2-2-2----|
d|-----------0-0---------0---0-0----------|
a|----------------------------------------|
E|----------------------------------------|

Do     la-    fa      re2
                    do
Tu che  conosci il cielo
              La-
Saluta dio per me
                fa
E digli che sto bene
             re
Considerando che
                     do
Che non conosco il cielo
             La-
Però conosco te
                fa
Mi va di ringraziare
                  re
Puoi farlo tu per me?
                      do
Che intanto sono in viaggio
      Fa       sol             do
Digli pure che io sono in viaggio
      Fa      sol        do
Non lo so dove ma viaggio
       Fa      sol          re
E gli porterò i miei souvenir
                            Do     la-     fa     re
Tutti quanti i miei souvenir
                   do
Tu che conosci il cielo
             La-
E poi conosci me
                fa
Le sai le mie paure
                     re
Mi sa che sai il perché
                      do
Che non conosco il cielo
             La-
Farò come potrò
                   fa
Starò con tanta gente
                 re
Per stare solo un po'
                      do
Facendolo il mio viaggio
      Fa        sol          do
Cerco il mio pomeriggio di maggio
      Fa        sol          do
Non lo so come vado ma viaggio
        Fa     sol         re
E gli porterò i miei souvenir

                         do    la-    fa  re
Tutti quanti i miei souvenir

CHORUS RIFF

e|---------8-----------8----------------------------------3-|
b|-----8------8---8--------8-------8-----8---8----3---3-----|
g|--/9---9--9---9---9----9------9------9---9----4---4---4---|Repeat
d|---------------------------10-----------------------------| Few
a|----------------------------------------------------------|Times
E|----------------------------------------------------------|
Добавлено: 08.05.2012
Другие материалы по этой песне:
  • Аккорды и текст

Страница создана 09.03.2012
http://primanota.ru/ligabue/tu-che-conosci-il-cielo-chords.htm
Привет, Гость.
Предлагаем пройти революционный курс по гитаре.
Подарок от PrimaNota.Ru, забирай!