PrimaNota.ru - самый крупный в мире бесплатный архив песенных текстов, аккордов, табулатур и нот


Ligabue - Non Fai Piu Male - аккорды и текст, таба, видео

Регистрация Запомнить меня
Войти через:  Facebook Google Twitter Vk Yandex Mail.ru

Ligabue - Non Fai Piu Male - аккорды и текст, таба, видео

Печатать
Просмотров: 154
Новый альбом группы 'Черный Кузнец' по культовому сериалу 'Сверхъестественное'!
Non Fai Piu Male
Ligabue
[Intro]
e|-----5-------5-----|-----5-------5-----|
B|---0---0---0---0---|---0---0---0---0---|
G|-------------------|-------------------|
D|-------------------|-------------------| x2
A|-------------------|-------------------|
E|-------------------|-------------------|

[Verse 1]
Bm                 E
Ho avuto giorni migliori
G                   A
ma casco in piedi e tu ne sei fuori
Bm                E
è come un nuovo sapore
G                   A
che mi fa ingordo e senza ingrassare ma

[Pre-chorus]
E        G        A         A/A
 Resta lì dove sei dove non ti sento
E        G        A        A/A
 resta lì dove sai dove ti dico

[Chorus]
G              D              A                Bm7
Tu non fai più male non ci contare non fai più male sappi che
G              D           A                    Bm7           E
tu non fai più male devi sapere che non fai più male sappi che

[Interlude]
e|-----5-------5-----|-----5-------5-----|
B|---0---0---0---0---|---0---0---0---0---|
G|-------------------|-------------------|
D|-------------------|-------------------|
A|-------------------|-------------------|
E|-------------------|-------------------|

[Verse 2]
Bm                E
Ho preso le mie misure
G                A
sei anni luce da quella che eri
Bm                        E
è un po' che ti ho chiusa fuori
G                 A
acqua che passa e piova o non piova ma

[Pre-chorus]
E        G        A         A/A
 Resta lì dove sei dove non si sente
E        G        A        A/A
 resta lì dove sai dove ti dico

[Chorus]
G              D              A                Bm7
Tu non fai più male non ci contare non fai più male sappi che
G              D           A                    Bm7           E
tu non fai più male devi sapere che non fai più male sappi che

[Solo] Bm7 E7 G A x2

[Pre-chorus]
E        G        A         A/A
 Resta lì dove sei dove non si sente
E        G        A        A/A
 resta lì dove sai dove ti dico

[Chorus]
G              D              A                Bm7
Tu non fai più male non ci contare non fai più male sappi che
G              D           A                    Bm7         E
tu non fai più male devi sapere che non fai più male sappilo

[Outro]
e|-----5-------5-----|-----5-------5-----|
B|---0---0---0---0---|---0---0---0---0---|
G|-------------------|-------------------|
D|-------------------|-------------------| x4
A|-------------------|-------------------|
E--------------------|-------------------|
Добавлено: 18.05.2018
Другие материалы по этой песне:
  • Аккорды и текст

Страница создана 21.07.2012
http://primanota.ru/ligabue/non-fai-piu-male-chords.htm
Привет, Гость.
Предлагаем пройти революционный курс по гитаре.
Подарок от PrimaNota.Ru, забирай!