PrimaNota.ru - самый крупный в мире бесплатный архив песенных текстов, аккордов, табулатур и нот


Ligabue - Conosci Il Cielo - таба, видео

Регистрация Запомнить меня
Войти через:  Facebook Google Twitter Vk Yandex Mail.ru

Ligabue - Conosci Il Cielo - таба, видео

Печатать
Просмотров: 67
Auore/Author: Ligabue
Nome/Title: Tu che conosci il cielo
Album : Fuori come va?
transcriber : Alessandro Sole
 

h - hammer on
   p - pull off                             C = DO
      b - bend string up                       D = RE
     r - release bend                         E = MI
   / - slide up                             F = FA
   \ - slide down                           G = SOL
      v - vibrato (sometimes written as ~)     A = LA
      t - right hand tap                       B = SI
      x - play 'note' with heavy damping
 
Corpo.
 
   CMaj    |slide 1->5       CMaj     
E--0---0-0-0-7-7-7-0------|--0---0-0-0-7-7-7-0----------
B--1---1-1-1/5-5-5-0------|--1---1-1-1/5-5-5-0----------
G--0---0-0----------------|--0---0-0--------------------
D--2---2-2----------------|--2---2-2--------------------
A--3----------------------|--3--------------------------
E--3----------------------|--3--------------------------
 
   Amin                      Am
E--0---0-0-0-7-7-7-0------|--0---0-0-0-7-7-7-0----------
B--1---1-1-1/5-5-5-0------|--1---1-1-1/5-5-5-0----------
G--2---2-2----------------|--2---2-2--------------------
D--2---2-2----------------|--2---2-2--------------------
A--0----------------------|--0--------------------------
E-------------------------|-----------------------------
 
   FMaj
E--0---0------------------------------------------------
B--1---1----1h3-1----1-----1-3/5-3-----------3----3/5\3-
G--2---2--2------0h2-----2---------3/5-2---2----2-2/4\2-
D--3---2---------------3-----------------0--------------
A--3----------------------------------------------------
E-------------------------------------------------------
 
   DMaj
E------------------2-2-----------------------------------
B------3---3/5\3---3-3-3---3---3/5\3---3-3-0-------------
G----2---2-2/4\2-----------2-2-2/4\2---2-2-0-------------
D--0---------------------0-------------------------------
A--------------------------------------------------------
E--------------------------------------------------------
 

Ritornello. (Ma non ne sono troppo sicuro)
Arp. Chiave Cmaj
X 3 volte poi-> Solo 1
 
   Fmaj                 Cmaj      GMaj
E----8- -8----- -8---|----8- -8----- -8-------
B------8---8---8---8-|------8---8---8---8-----
G--9---------9-------|--9---------9-----------
D--------------------|------------------------
A--------------------|------------------------
E--------------------|------------------------
 

Solo 1 Light Distortion
 
Dmaj                                Nota Vibrato~
E--2-2-----------------------------------------------------
B--3-3-3-3/5\3--3-0h3-3-3---3/5\3--x-x-x/8~~~\1~1/6 5b5----
G--2-2-2-2/4\2--2-0h2-2-2---2/4\2--x-x-x---------------7-5-
D--0-0--------------------0--------x-x-x-------------------
A----------------------------------------------------------
E----------------------------------------------------------
     ~  ~                                                ~
E---------------------------8b8-------------10b10-8----10~-
B-5/8~\1~1/6-5b-----5/8b8--8--------8b8---8---------10-----
G---------------7-5-------9-----7-9-----9------------------
D----------------------------------------------------------
A----------------------------------------------------------
E----------------------------------------------------------
                                  ~
E----------------------------------------------------------
B------------------------------7-8~------------------------
G-----7-9b-9b-8br-7-9-7---7-9b-----------------------------
D-7h9-------------------9----------------------------------
A----------------------------------------------------------
E----------------------------------------------------------
 

Solo 2 Light Distortion
 
Dmaj                                 ~~~Vibrato
E--2-2-----------------------------------------------------
B--3-3-3-3/5\3--3-0h3-3-3---3/5\3--x-x-x/8~~~\1~1/6 5b5----
G--2-2-2-2/4\2--2-0h2-2-2---2/4\2--x-x-x---------------7-5-
D--0-0--------------------0--------x-x-x-------------------
A----------------------------------------------------------
E----------------------------------------------------------
      ~  ~           |------|Let ring    ~      ~
E----------------------------------------------------------
B--5/8~\1~1/6-5b---------6---6/8-6---6/10~8-10-------------
G----------------7-5-------5-------5----------10~-10/12----
D--------------------5/7-----------------------------------
A----------------------------------------------------------
E----------------------------------------------------------
                  ~                      ~
E-----10----------------------------------------
B--------8b-8-7-7b-7-------6-----6 8b-8r-8\12~--
G-10b----------------7~------7-7----------------
D-----------------------------------------------
A-----------------------------------------------
E-----------------------------------------------
 
E'la prima tablatura che scrivo, non e' fedelissima ma
suona bene, anche se ha bisogno di qualche ritocco ciao a tutti.
 
alessandro_sole@hotmail.com
     
Добавлено: 11.10.2013
Другие материалы по этой песне:
  • Аккорды и текст

Страница создана 11.10.2013
http://primanota.ru/ligabue/conosci-il-cielo-chords.htm
Привет, Гость.
Предлагаем пройти революционный курс по гитаре.
Подарок от PrimaNota.Ru, забирай!