PrimaNota.ru - самый крупный в мире бесплатный архив песенных текстов, аккордов, табулатур и нот


Ligabue - Certe Notti - аккорды и текст, таба, видео

Регистрация Запомнить меня
Войти через:  Facebook Google Twitter Vk Yandex Mail.ru

Ligabue - Certe Notti - аккорды и текст, таба, видео

Печатать
Просмотров: 190
Certe Notti
Ligabue
Author/Artist: Ligabue
Title: Certe notti
Album: Su e giщ da un palco
Transcribed by: Dela
Email: dany_dela@yahoo.it

-||--------------|-------------------|--------------|-----------------------|-
-||-5------5-----|-------------------|-5------5-----|-----------------------|-
-||---4------4---|-----4--------4----|---4------4---|-------4--------4------|-
-||-2---2------2-|-1h2----2-1h2----2-|-2---2------2-|---1h2----2-1h2----2---|-
-||--------------|-------------------|--------------|-----------------------|-
-||--------------|-------------------|--------------|-----------------------|-
                                                                              

-||-----0-----2--0---|---0---2--0---|--------------------|------------------|-
-||------------------|--------------|-----0---------0----|--5------5--------|-
-||-0h1----1-------1-|-2---2------2-|--------------------|----4------4------|-
-||------------------|--------------|-1h2----2--1h2----2-|------2------2----|-
-||------------------|--------------|--------------------|------------------|-
-||------------------|--------------|--------------------|------------------|-
   FILL                                                                       

-|-------------------|---------------|----------------|---------------------|-
-|-5p4------5p4------|--5------5-----|----------5-----|------0--------0-----|-
-|-----4--------4----|----4------4---|-----4------4---|---------------------|-
-|--------2--------2-|------2------2-|-6h7---2------2-|--1h2---2--1h2---2---|-
-|-------------------|---------------|----------------|---------------------|-
-|-------------------|---------------|----------------|---------------------|-
                                                                              

-|----2------2-------|--------------|-----------------------------------------
-|------3------3-----|--------------|--------5--------------------2-----------
-|--------2------2---|--------------|------6----6---------------4---4---------
-|-------------------|--------------|----6---------6----------4-------4-------
-|-------------------|--------------|--4--------------------2-----------------
-|-------------------|--------------|-----------------------------------------
        (4x)           VERSE - FILL    E non si puo restare soli..(FILL 2)    

------------------------------------------------------------------------------
-------------------------------------------2------------2--------2-----4------
------2-2---------1--2--1------4---------2---2--------4---4------2-----4------
----2-----2------------------4---------2-------2----4-------4----4-----6------
--0---------0------------------------0------------2--------------4-----6------
---------------------------4--------------------------------------------------
                                                                              

----------5----------------------------------|-2------2------2------2---------
--5--5------5--------------------------2-----|---3------3------3------3-------
--6----6------6--------2-----2-------4---4---|-----2------2------2------2-----
--7------------------2-----2-------4-------4-|--------------------------------
--7----------------0-----0-------2-----------|--------------------------------
---------------------------------------------|--------------------------------
                                                                              

--2------2------2--------------12-------12------------------------------------
----3------3------3---------------12-------12----------12-----------12--------
------2------2------2--13--14--------9--------9----8/9-------9--8/9-------9---
------------------------------------------------------------------------------
------------------------------------------------------------------------------
------------------------------------------------------------------------------
                                                                              

--12--------------------12------------------------12-------12-----------------
-----12---------12---------12-----5p4------5p4-------12-------12--------12----
--------9---8/9------9--------9-------4--4-----4/-------9--------9--8/9----9--
------------------------------------------------------------------------------
------------------------------------------------------------------------------
------------------------------------------------------------------------------
                                                                              

--12-------------------12--------------12----14-12-----------12----14-12------
-----12---------12--------12--------------------------------------------------
--------9---8/9-----9--------9---12/13----13-------13--13/14----14-------14---
------------------------------------------------------------------------------
------------------------------------------------------------------------------
------------------------------------------------------------------------------
                                                                              

-------------------------12-------12-----------------------12-------12--------
------12---------12---------12-------12-----5p4-----5p4-------12-------12-----
--8/9-----9--8/9-----9---------9--------9-------4-4-----4/-------9--------9---
------------------------------------------------------------------------------
------------------------------------------------------------------------------
------------------------------------------------------------------------------
                                                                              

-------------12-----------------12------|-----------------------------------|-
------12--------12--------12-------12---|-----------------------------------|-
--8/9-----9--------9--8/9----9--------9-|-----------------------------------|-
----------------------------------------|-----------------------------------|-
----------------------------------------|-----------------------------------|-
----------------------------------------|-----------------------------------|-
                                                      FILL 2                  

-|-----------------------------------------------------------------------12---
-|-17b--17vv--12--14--14b--14------------------------------------------------
-|--------------------------------------------------------------9--11/13------
-|-----------------------------/18p16-14--16----14-16b--14-9-11---------------
-|-------------------------------------------16-------------------------------
-|----------------------------------------------------------------------------
   SOLO                                                                       

----------------------------------------------------------------------------|-
--14vv--12--12------12b--12---------9--------12--------14-------------------|-
--------11b-11--9---11---11b----------------------------------13h14p13------|-
-------------------------------9h11----11/13-----13/14-----14-----------14--|-
----------------------------------------------------------------------------|-
----------------------------------------------------------------------------|-
                                                                              

Добавлено: 16.06.2012
Другие материалы по этой песне:

Страница создана 12.03.2012
http://primanota.ru/ligabue/certe-notti-chords.htm
Привет, Гость.
Предлагаем пройти революционный курс по гитаре.
Подарок от PrimaNota.Ru, забирай!