PrimaNota.ru - самый крупный в мире бесплатный архив песенных текстов, аккордов, табулатур и нот


Lifter Puller - Nassau Coliseum - таба, видео

Регистрация Запомнить меня
Войти через:  Facebook Google Twitter Vk Yandex Mail.ru

Lifter Puller - Nassau Coliseum - таба, видео

Печатать
Просмотров: 132
LIFTER PULLER 
"Nassau Coliseum" 
Half Dead and Dynamite (1997)

tabbed by R.W.

I noticed that there were almost no LP tabs on here, so I figured I'd try one of my favorites.
Enjoy!

PART 1

right guitar (starting on the last four of the bass; play on the strings behind the nut)
e|-X-X-X-X---|
B|-X-X-X-X---|
G|-X-X-X-X---| X2
D|-X-X-X-X---|
A|-X-X-X-X---|
E|-X-X-X-X---|

left guitar
e|------------------------------------|
B|------------------------------------|
G|-7-7-7-7-7-7-7-7--0-0-0-0-0-0-0-0---| X2
D|------------------------------------|
A|-7-7-7-7-7-7-7-7--3-3-3-3-3-3-3-3---|
E|------------------------------------|

PART 2

R
e|-------------------------------------------------------------------|
B|-------------------------------------------------------------------|
G|-------------------------------------------------------------------| X2
D|-------------------------------------------------------------------|
A|-7-7-7-7-7-7-7-7-7-7-7-7-7-7-7-7-----------------------------------|
E|---------------------------------3-3-3-3-3-3-3-3-3-3-3-3-3-3-3-3---|

L
e|--------------------------------------------------------------------|
B|--------------------------------------------------------------------|
G|-----7-------7-------7-------7--------0-------0-------0-------0-----| X2
D|--------------------------------------------------------------------|
A|-7-7-7-7-7-7-7-7-7-7-7-7-7-7-7-7--3-3-3-3-3-3-3-3-3-3-3-3-3-3-3-3---|
E|--------------------------------------------------------------------|


PART 3 (same as part 1)


PART 4

R
e|----------------------------------------|
B|-----0-------0-------0-------0----------|
G|-----0-------0-------0-------0----0~----| X4
D|----------------------------------------|
A|-2-2-2-2-2-2-2-2-2-2-2-2-2-2-2-2--------|
E|----------------------------------3~----|

L
e|----------------------------|
B|----------------------------|
G|---0-----0----0----0---0~---| X4
D|--0-0---0-0--0-0--0-0-------|
A|-2-----2---------------3~---|
E|------------3---/5----------|


PART 5 (LOUD!!!)

R
e|-----------------------------------------------------|
B|-----------------------------------------------------|
G|-12-12-12-12-12-12-12-12-12-12-12-12-12-12-12-12-----| X4
D|-12-12-12-12-12-12-12-12-12-12-12-12-12-12-12-12-5~--|
A|-10-10-10-10-10-10-10-10-10-10-10-10-10-10-10-10-3~--|
E|-----------------------------------------------------|

L
e|------------------------------------------------------|
B|-------------------------------------------------3~---|
G|-12-12-12-12-12-12-12-12-12-12-12-12-12-12-12-12-0~---| X4
D|-12-12-12-12-12-12-12-12-12-12-12-12-12-12-12-12------| 
A|-10-10-10-10-10-10-10-10-10-10-10-10-10-10-10-10-3~---|
E|------------------------------------------------------|


PART 6 (soft!!!)

R (palm muted)
e|-------------------------------------------------------|
B|-------------------------------------------------------|
G|-------------------------------------------------------| X2
D|-12-12-12-12-12-12-12-12-77777777-55555555-55555555----|
A|-10-10-10-10-10-10-10-10-55555555-33333333-33333333----|
E|-------------------------------------------------------|

L
e|-----------------------------------------------------|
B|-------15--------------------------------------------|
G|---12-------12/---7-9-7-7/----0-----0---0-----0------| X2
D|----------------------------------2--------0h2-------|
A|-10--10--10------5-5---5-----3---------3-3-----------|
E|-----------------------------------------------------|

other (on Right side, the 2nd time through, on every third beat)
e|-7---|
B|-8---|
G|-----|
D|-----|
A|-----|
E|-----|


PART 7 (very soft!!!)

L & R (palm muted)
e|-------------------------------------------------------|
B|-------------------------------------------------------|
G|-------------------------------------------------------| X2
D|-12-12-12-12-12-12-12-12-77777777-55555555-55555555----|
A|-10-10-10-10-10-10-10-10-55555555-33333333-33333333----|
E|-------------------------------------------------------|

other guitar (on every 3rd beat)
e|-15-7---|
B|-15-8---|
G|--------|
D|--------| X2
A|--------|
E|--------|


PART 8 (same as part 6) (X2)
        but on the last 16 beats (LOUD)

R
e|---------------------|
B|---------------------|
G|-00000000-00000000---|
D|---------------------|
A|-33333333-33333333---|
E|---------------------|

L
e|---------------------|
B|-88888888-88888888---|
G|-77777777-77777777---|
D|-55555555-55555555---|
A|---------------------|
E|---------------------|


PART 9

R
e|------------------------------------------|
B|------------------------------------------|
G|-12-12-12-12--7-7-7-7--5-5-5-5--7-7-7-7---|
D|-12-12-12-12--7-7-7-7--5-5-5-5--7-7-7-7---|
A|-10-10-10-10--5-5-5-5--3-3-3-3--5-5-5-5---|
E|------------------------------------------|

L
e|--------------------------------------------------|
B|-15-15-15-15--10-10-10-10--8-8-8-8--10-10-10-10---|
G|-12-12-12-12---7--7--7--7--5-5-5-5---7--7--7--7---|
D|--------------------------------------------------|
A|--------------------------------------------------|
E|--------------------------------------------------|

end on

R
e|-------|
B|-------|
G|-12~---|
D|-12~---|
A|-10~---|
E|-------|

L
e|------|
B|-15~--|
G|-12~--|
D|------|
A|------|
E|------|
Добавлено: 15.08.2015
Вам также может быть интересно:
Другие материалы по этой песне:
  • Аккорды и текст

Страница создана 15.08.2015
http://primanota.ru/lifter-puller/nassau-coliseum-chords.htm
Привет, Гость.
Предлагаем пройти революционный курс по гитаре.
Подарок от PrimaNota.Ru, забирай!