PrimaNota.ru - самый крупный в мире бесплатный архив песенных текстов, аккордов, табулатур и нот


Lifter Puller - Lonely In A Limousine - бас-таба, видео

Регистрация Запомнить меня
Войти через:  Facebook Google Twitter Vk Yandex Mail.ru

Lifter Puller - Lonely In A Limousine - бас-таба, видео

Печатать
Просмотров: 90
Уроки эстрадного вокала в Санкт-Петербурге
-------------------------------------------------------------------------------
                             LONELY IN A LIMOUSINE - Lifter Puller
-------------------------------------------------------------------------------

A fairly distorted bass.
http://en.wikipedia.org/wiki/Lifter_puller
http://www.lftrpllr.com/

Tuning:

G|--------------------------------------------------------------------------|
D|--------------------------------------------------------------------------|
A|-\5--2---2--2h5--2---2---2h5-5--2---2---2---2h5--2--2--2------------------|
E|-------5---5-------5---5----------5---5---5--------5--5-------------------|

G|-------10-----------------------------------------------------------------|
D|----------10--------------------------------------------------------------|
A|--8----------8----------------2-5--2--2--2h5-5--2--2--2-------------------|
E|------------------3-3--3--3-5--------5--5---------5--5--------------------|

G|-----10-------------12----------------------------------------------------|
D|--------10-------------12-------------------------------------------------|
A|--8---------8---10---------10--5--2---2---2h5--2--2--2h5-5--2--2--2h5-5---|
E|------------------------------------5---5--------5--5---------5--5--------|

G|--------------------------------------------------------------------------|
D|--------------------------------------------------------------------------|
A|-\5--2---2--2h5--2---2---2h5-5--2---2---2---2h5--2--2--2------------------|
E|-------5---5-------5---5----------5---5---5--------5--5-------------------|

G|-------10-----------------------------------------------------------------|
D|----------10--------------------------------------------------------------|
A|--8----------8----------------2-5--2--2--2h5-5--2--2--2-------------------|
E|------------------3-3--3--3-5--------5--5---------5--5--------------------|

G|-----10------------------------------(0)----------------------------------|
D|--------10----------------------------5-----------------------------------|
A|--8--------8--10-10--\2--4-0--5-4-----------------------------------------|
E|----------------------------------5--(3)----------------------------------|
Hold this last G; I think that it sounds better on the low G, but, in the recording, the 
G played is the one below middle C.

G|--------------------------------------------------------------------------|
D|----------------------------------------------5-4-------------------------|
A|-0-1-2--4-5----5-4-----------------2--4-5--------5------------------------|
E|------------5------5-3---3-3-3--5---------5--------3--3-3-3-3---5---------|
"She stumbled in sideways . . . "

G|--------------------------------------------------------------------------|
D|-----------------------------------------5-4------------------------------|
A|-2--4-5----5-4-----------------2--4-5--------5----------------------------|
E|--------5------5-3---3-3-3--5---------5--------3--3-3-3-3---5-------------|

G|--------------------------------------------------------------------------|
D|--------------------------------------------------------------------------|
A|-5-5---3-3----------------------------------------------------------------|
E|-------------3-3----------------------------------------------------------| X2
(It's hard to hear of the bass is actually playing for these first couple of hits; I 
don't think that it is, but here are the notes anyway.)

G|(7-7)-(5-5)---------------------------------------------------------------|
D|(7-7)-(5-5)-(5-5)-----------12-(12)h14--12--------------------------------|
A|-5-5---3-3--(5-5)-----10-12----------------12-----------------------------|
E|-------------3-3----------------------------------------------------------|
Tad might be playing D5, C5 and G5, but, do to heavy distortion, it's very difficult to tell.

G|------------------------------12p11-----12p11-----------------------------|
D|------------------------------------12--------12--------------------------|
A|-(12-12)-(10-10)--(5-5)--------------------------12-----------------------|
E|--10-10---8--8-----3-3----------------------------------------------------|

G|------------------------------------------------------------------------------------|
D|------------------------------------------------------------------------------------|
A|------------------------------------------------------------------------------------|
E|--10--10-10-10-10-10-10-10-8--8-8-8-8-8-8-/15--15-15-15-15-15--15--15-15-15-14-12---|

G|-------------------------------------------|
D|-------------------------------------------|
A|-------------------------------------------|
E|--10-10---8--8-----3-3---------------------|

| /  slide up
| \  slide down
| h  hammer-on
| p  pull-off
| ~  vibrato
| +  harmonic
| x  Mute note
=============================================================================
Добавлено: 25.06.2013
Другие материалы по этой песне:
  • Аккорды и текст

Страница создана 25.06.2013
http://primanota.ru/lifter-puller/lonely-in-a-limousine-chords.htm
Привет, Гость.
Предлагаем пройти революционный курс по гитаре.
Подарок от PrimaNota.Ru, забирай!