PrimaNota.ru - самый крупный в мире бесплатный архив песенных текстов, аккордов, табулатур и нот


Lifetime - Haircuts And T-shirts - бас-таба, видео

Регистрация Запомнить меня
Войти через:  Facebook Google Twitter Vk Yandex Mail.ru

Lifetime - Haircuts And T-shirts - бас-таба, видео

Печатать
Просмотров: 100
Tuning: Standard


|------------------------------------------------|
|------------------------------------------------|
|-5~--------2~--------3~----------------00-000-0-|
|-------------------------------33-333-3---------|

|----------------------------------------------------------------------|
|----------------------------------------------------------------------|
|-55-555-555-555-5-22-222-222-222-2-33-333-333-333-3----------00-0-0-0-|
|----------------------------------------------------33-3-3-3----------|x2

|----------------------------------------------------|
|----------------------------------------------------|
|-2-2-3-3-----0-0-55-555-555-555-5-52-0-3-2-52-0-3-2-|
|---------3-3----------------------------------------|

|---------------------------------------------------------------------|
|---------------------------------------------------------------------|
|-5-555-555-55-5-5-----------------------------------3-333-333-33-3-3-|
|------------------0-000-000-00-0-0-3-333-333-33-3-3------------------|

|----------------------------------------------------------------------|
|----------------------------------------------------------------------|
|-55-555-555-555-5-22-222-222-222-2-33-333-333-333-3----------00-0-0-0-|
|----------------------------------------------------33-3-3-3----------|x3

|----------------------------------------------------|
|----------------------------------------------------|
|-2-2-3-3-----0-0-55-555-555-555-5-52-0-3-2-52-0-3-2-|
|---------3-3----------------------------------------|

|---------------------------------------------------------------------|
|---------------------------------------------------------------------|
|-5-555-555-55-5-5-----------------------------------3-333-333-33-3-3-|
|------------------0-000-000-00-0-0-3-333-333-33-3-3------------------|

|-----------------------------------------------------------------|
|-----------------------------------------------------------------|
|-5-5-5-5-5-5-5-5-2-2-2-2-2-2-2-2-3-3-3-3-3-3-3-3-----------------|
|-------------------------------------------------3-3-3-3-3-3-3-3-|x2

|---------------------------------|
|-5--5--5~----2--2----------------|
|-------------------0~------------|
|---------------------------------|
Добавлено: 28.02.2012
Другие материалы по этой песне:
  • Аккорды и текст

Страница создана 28.02.2012
http://primanota.ru/lifetime/haircuts-and-t-shirts-chords.htm
Привет, Гость.
Предлагаем пройти революционный курс по гитаре.
Подарок от PrimaNota.Ru, забирай!