PrimaNota.ru - самый крупный в мире бесплатный архив песенных текстов, аккордов, табулатур и нот


Lifesavers - Choose To Be True - таба, видео

Регистрация Запомнить меня
Войти через:  Facebook Google Twitter Vk Yandex Mail.ru

Lifesavers - Choose To Be True - таба, видео

Печатать
Просмотров: 68
E  A-A    E A-A
            E	     A-A        E
                A-A
On the day that I met you,      you came to hold my hand
        E                                         A--A   E
You said you'd never leave me, but I did not understand

(riff 1)            A                                  E     
A-A-A
         Oh-oh-oh--------------You choose to be true

E                              A-A        E                   A-A
In the morning when I call you, you greet me with a smile    
        E                     A-A    E
You hold me like forever, no it's not just for awhile

        (riff 1) A                                              E	
        Oh-oh-oh-----------------You choose to be true
A-A        B                              A (mute strings)
       And if I walk awaaaaaaaaay,
(no guitar)               E
	I want you to follow me

(Instrumental solo)

You tell me that you love me.  How I want to love you too
If I do you wrong by Sunday, you've forgotten it by Monday
        You choose to be true
        And if I walk away,
        I want you to follow me, to follow me, to follow me

Riff 1
        e:-X--0--0-0--0--0--0-0-0---0------0-----0--------
        B:-X--2--2-0--3--2--0-2-0---3------2-----0--------
        G:-X--2--2-2--2--2--2-2-2---2------2-----1--------
        D:-X--2--2-2--2--2--2-2-2---2------2-----2--------
        A:-X--0--0-2--0--0--0-0-0---0------0-----2--------
        E:-X-------------------------------------0--------
     Oh,  oh,  Ooooooh	       you choose to be true

solo	   *	                            *
e:-X--0--0-0--0--0--0--0-0-0--X--0--0-0--0--0--0--0-0-0
B:-X--2--2-0--3--2--0--2-2-2--X--2--2-0--3--2--0--2-2-2
G:-X--2--2-2--2--2--2--2-2-2--X--2--2-2--2--2--2--2-2-2
D:-X--2--2-2--2--2--2--2-2-2--X--2--2-2--2--2--2--2-2-2
A:-X--0--0-2--0--0--0--0-0-0--X--0--0-0--0--0--0--0-0-0
E:-X--------------------------X------------------------
* the x's are to be played as a momentary muted pause

e:----0--0-0--0----0-0---0---0--0-0---0-0-0---X--0--0-0--0--
B:----0--0-0--0----2-2---2---0--0-0---0-0-0---X--2--2-0--3--
G:----1--1-1--1----2-2---2---1--1-1---1-1-1---X--2--2-2--2--
D:----2--2-2--2----2-2---2---2--2-2---2-2-2---X--2--2-2--2--
A:----2--2-2--2----0-0---0---2--2-2---2-2-2---X--0--0-0--0--
E:--0-0--0-0--0------------0-0--0-0---0-0-0---X-------------

e:0--0--0-0-0--X--0--0-0--0--0--0--0-0-0--X--2--2-2--2--2--2
B:2--0--2-2-2--X--2--2-0--3--2--0--2-2-2--X--4--4-2--5--4--2
G:2--2--2-2-2--X--2--2-2--2--2--2--2-2-2--X--4--4-4--4--4--4
D:2--2--2-2-2--X--2--2-2--2--2--2--2-2-2--X--4--4-4--4--4--4
A:0--0--0-0-0--X--0--0-0--0--0--0--0-0-0--X--2--2-2--2--2--2
E:-------------X--------------------------X----------------
	    !
e:-2-2-2-2------- 
B:-4-4-4-4------- 
G:-4-4-4-4------- 
D:-4-4-4-4-------  
A:-2-2-2-2------- 
E:---------------
 	    ! MUTE AND HOLD(Then start singing the last stanza)
Notes on playing the song.  I'm assuming you have the recording.  
It's really easy, just figure out riff 1, and that is the basis 
for any deviation from the regular chords, even for the "solo." 
If you don't have the recording, shame on you.  This was way 
ahead of it's time (for Christian music).  Excuse me for my 
digression, but Mike Knott has the best alternative voice ever.  
During the hey-day of the 80's while most Christian bands were 
playing either top-40, or Muzak sounding songs with their Casios,
 a few, and I mean a few bands like the Lifesavers, DA (remember
 "Doppleganger") and the Altar Boys were doing alternative.  This
 is, mind you, when the word alternative had meaning.  But I 
digress.  I'll get off my soap-box.  Check out "See Me Fall," 
what a worship song.     
Добавлено: 28.08.2013
Другие материалы по этой песне:
  • Аккорды и текст

Страница создана 28.08.2013
http://primanota.ru/lifesavers/choose-to-be-true-chords.htm
Привет, Гость.
Предлагаем пройти революционный курс по гитаре.
Подарок от PrimaNota.Ru, забирай!