PrimaNota.ru - самый крупный в мире бесплатный архив песенных текстов, аккордов, табулатур и нот


Liferuiner - Sose - таба, видео

Регистрация Запомнить меня
Войти через:  Facebook Google Twitter Vk Yandex Mail.ru

Liferuiner - Sose - таба, видео

Печатать
Просмотров: 91
                      LIFERUINER - S.O.S.E
SORRY FOR THE DOGEY LAY OUT, I USED THE ASCII TAB EXPORT ON GUITAR PRO AND JUST COPIED 
AND PASTED IT FROM THERE TO SAVE TABBING IT OUT ALL AGAIN!
This tab isn't 100% accurate but it gives you a rough idea!
I think the chorus maybe off, im not sure...
Any corrections email me: zeca-85@hotmail.com
Enjoy it :)
DROP A



      |-3-| |-3-| |-3-|                 |-3-| |-3-| |-3-| |-3-| |-3-|
      S S S S S S S S S                 S S S S S S S S S S S S S S S
B ||------------------------------------------------------------------|
F#||------------------------------------------------------------------|
D ||------------------------------------------------------------------|
A ||------------------------------------------------------------------|
E ||--------7-7-7-7-7-7-----------------------7-7-7-7-7-7-------7-7-7-|
A ||--0-0-0-----------------------------0-0-0-------------0-0-0-------|


  |-3-| |-3-| |-3-| |-3-|
  S S S S S S S S S S S S S S S S S S S S
------------------------------------------|
------------------------------------------|
------------------------------------------|
------------------------------------------|
--7-7-7-------7-7-7-7-7-7-----------------|
--------0-0-0-------------1-1-1-1-1-1-1-1-|


  |-3-| |-3-| |-3-| |-3-| |-3-| |-3-| |-3-| |-3-|
  S S S S S S S S S S S S S S S S S S S S S S S S
--------------------------------------------------|
--------------------------------------------------|
--------------------------------------------------|
--------------------------------------------------|
--------7-7-7-7-7-7-------7-7-7-7-7-7-------7-7-7-|
--0-0-0-------------0-0-0-------------0-0-0-------|


  |-3-| |-3-| |-3-| |-3-|
  S S S S S S S S S S S S S S S S S S S S
------------------------------------------|
------------------------------------------|
------------------------------------------|
------------------------------------------|
--7-7-7-------7-7-7-7-7-7-----------------|
--------0-0-0-------------1-1-1-1-1-1-1-1-|


  |-3-| |-3-| |-3-| |-3-| |-3-| |-3-| |-3-| |-3-|
  S S S S S S S S S S S S S S S S S S S S S S S S
--------------------------------------------------|
--------------------------------------------------|
--------------------------------------------------|
--------------------------------------------------|
--------7-7-7-7-7-7-------7-7-7-7-7-7-------7-7-7-|
--0-0-0-------------0-0-0-------------0-0-0-------|


  |-3-| |-3-| |-3-| |-3-|
  S S S S S S S S S S S S S S S S S S S S
------------------------------------------|
------------------------------------------|
------------------------------------------|
------------------------------------------|
--7-7-7-------7-7-7-7-7-7-----------------|
--------0-0-0-------------1-1-1-1-1-1-1-1-|


  |-3-| |-3-| |-3-| |-3-| |-3-| |-3-| |-3-| |-3-|
  S S S S S S S S S S S S S S S S S S S S S S S S
--------------------------------------------------|
--------------------------------------------------|
--------------------------------------------------|
--------------------------------------------------|
--------7-7-7-7-7-7-------7-7-7-7-7-7-------7-7-7-|
--0-0-0-------------0-0-0-------------0-0-0-------|


  |-3-| |-3-| |-3-| |-3-|
  S S S S S S S S S S S S S S S S S S S S
------------------------------------------|
------------------------------------------|
------------------------------------------|
------------------------------------------|
--7-7-7-------7-7-7-7-7-7-----------------|
--------0-0-0-------------1-1-1-1-1-1-1-1-|


  |-3-| |-3-| |-3-| |-3-| |-3-| |-3-| |-3-| |-3-|
  S S S S S S S S S S S S S S S S S S S S S S S S
--------------------------------------------------|
--------------------------------------------------|
--------------------------------------------------|
--------------------------------------------------|
--------7-7-7-7-7-7-------7-7-7-7-7-7-------7-7-7-|
--0-0-0-------------0-0-0-------------0-0-0-------|


  |-3-| |-3-| |-3-| |-3-|
  S S S S S S S S S S S S S S S S S S S S
------------------------------------------|
------------------------------------------|
------------------------------------------|
------------------------------------------|
--7-7-7-------7-7-7-7-7-7-----------------|
--------0-0-0-------------1-1-1-1-1-1-1-1-|


  |-3-| |-3-| |-3-| |-3-| |-3-| |-3-| |-3-| |-3-|
  S S S S S S S S S S S S S S S S S S S S S S S S
--------------------------------------------------|
--------------------------------------------------|
--------------------------------------------------|
--------------------------------------------------|
--------7-7-7-7-7-7-------7-7-7-7-7-7-------7-7-7-|
--0-0-0-------------0-0-0-------------0-0-0-------|


  |-3-| |-3-| |-3-| |-3-|
  S S S S S S S S S S S S S S S S S S S S
------------------------------------------|
------------------------------------------|
------------------------------------------|
------------------------------------------|
--7-7-7-------7-7-7-7-7-7-----------------|
--------0-0-0-------------1-1-1-1-1-1-1-1-|


  |-3-| |-3-| |-3-| |-3-| |-3-| |-3-| |-3-| |-3-|
  S S S S S S S S S S S S S S S S S S S S S S S S
--------------------------------------------------|
--------------------------------------------------|
--------------------------------------------------|
--------------------------------------------------|
--------7-7-7-7-7-7-------7-7-7-7-7-7-------7-7-7-|
--0-0-0-------------0-0-0-------------0-0-0-------|


  |-3-| |-3-| |-3-| |-3-|
  S S S S S S S S S S S S S S S S S S S S
------------------------------------------|
------------------------------------------|
------------------------------------------|
------------------------------------------|
--7-7-7-------7-7-7-7-7-7-----------------|
--------0-0-0-------------1-1-1-1-1-1-1-1-|


  |-3-| |-3-| |-3-| |-3-| |-3-| |-3-| |-3-| |-3-|
  S S S S S S S S S S S S S S S S S S S S S S S S
--------------------------------------------------|
--------------------------------------------------|
--------------------------------------------------|
--------------------------------------------------|
--------7-7-7-7-7-7-------7-7-7-7-7-7-------7-7-7-|
--0-0-0-------------0-0-0-------------0-0-0-------|


  |-3-| |-3-| |-3-| |-3-|
  S S S S S S S S S S S S S S S S S S S S
------------------------------------------|
------------------------------------------|
------------------------------------------|
------------------------------------------|
--7-7-7-------7-7-7-7-7-7-----------------|
--------0-0-0-------------1-1-1-1-1-1-1-1-|


   |--3--|  |--3--|  |--3--|  |--3--|  |--3--|  |--3--|  |--3--|  |--3--|
   S  S  S  S  S  S  S  S  S  S  S  S  S  S  S  S  S  S  S  S  S  S  S  S
-----------------------------17-17-17-17-17-17-17-17-17-------------------|
--15-15-15-15-15-15-15-15-15----------------------------17-17-17-17-17-17-|
--------------------------------------------------------------------------|
--------------------------------------------------------------------------|
--------------------------------------------------------------------------|
--------------------------------------------------------------------------|


   |--3--|  |--3--|  |--3--|  |--3--|  |--3--|  |--3--|  |--3--|  |--3--|
   S  S  S  S  S  S  S  S  S  S  S  S  S  S  S  S  S  S  S  S  S  S  S  S
--------------------------------------------------------------------------|
--17-17-17-17-17-17-17-17-17-17-17-17-18-18-18-18-18-18-18-18-18-18-18-18-|
--------------------------------------------------------------------------|
--------------------------------------------------------------------------|
--------------------------------------------------------------------------|
--------------------------------------------------------------------------|


   |--3--|  |--3--|  |--3--|  |--3--|  |--3--|  |--3--|  |--3--|  |--3--|
   S  S  S  S  S  S  S  S  S  S  S  S  S  S  S  S  S  S  S  S  S  S  S  S
-----------------------------17-17-17-17-17-17-17-17-17-------------------|
--15-15-15-15-15-15-15-15-15----------------------------17-17-17-17-17-17-|
--------------------------------------------------------------------------|
--------------------------------------------------------------------------|
--------------------------------------------------------------------------|
--------------------------------------------------------------------------|


   |--3--|  |--3--|  |--3--|  |--3--|  |--3--|  |--3--|  |--3--|  |--3--|
   S  S  S  S  S  S  S  S  S  S  S  S  S  S  S  S  S  S  S  S  S  S  S  S
--------------------------------------------------------------------------|
--17-17-17-17-17-17-17-17-17-17-17-17-18-18-18-18-18-18-14-14-14-14-14-14-|
--------------------------------------------------------------------------|
--------------------------------------------------------------------------|
--------------------------------------------------------------------------|
--------------------------------------------------------------------------|


   |--3--|  |--3--|  |--3--|  |--3--|  |--3--|  |--3--|  |--3--|  |--3--|
   S  S  S  S  S  S  S  S  S  S  S  S  S  S  S  S  S  S  S  S  S  S  S  S
-----------------------------17-17-17-17-17-17-17-17-17-------------------|
--15-15-15-15-15-15-15-15-15----------------------------17-17-17-17-17-17-|
--------------------------------------------------------------------------|
--------------------------------------------------------------------------|
--------------------------------------------------------------------------|
--------------------------------------------------------------------------|


   |--3--|  |--3--|  |--3--|  |--3--|  |--3--|  |--3--|  |--3--|  |--3--|
   S  S  S  S  S  S  S  S  S  S  S  S  S  S  S  S  S  S  S  S  S  S  S  S
--------------------------------------------------------------------------|
--17-17-17-17-17-17-17-17-17-17-17-17-18-18-18-18-18-18-18-18-18-18-18-18-|
--------------------------------------------------------------------------|
--------------------------------------------------------------------------|
--------------------------------------------------------------------------|
--------------------------------------------------------------------------|


   |--3--|  |--3--|  |--3--|  |--3--|  |--3--|  |--3--|  |--3--|  |--3--|
   S  S  S  S  S  S  S  S  S  S  S  S  S  S  S  S  S  S  S  S  S  S  S  S
-----------------------------17-17-17-17-17-17-17-17-17-------------------|
--15-15-15-15-15-15-15-15-15----------------------------17-17-17-17-17-17-|
--------------------------------------------------------------------------|
--------------------------------------------------------------------------|
--------------------------------------------------------------------------|
--------------------------------------------------------------------------|


   |--3--|  |--3--|  |--3--|  |--3--|  |--3--|  |--3--|  |--3--|  |--3--|
   S  S  S  S  S  S  S  S  S  S  S  S  S  S  S  S  S  S  S  S  S  S  S  S
--------------------------------------------------------------------------|
--17-17-17-17-17-17-17-17-17-17-17-17-18-18-18-18-18-18-14-14-14-14-14-14-|
--------------------------------------------------------------------------|
--------------------------------------------------------------------------|
--------------------------------------------------------------------------|
--------------------------------------------------------------------------|


  |-3-| |-3-| |-3-| |-3-| |-3-| |-3-| |-3-| |-3-|
  S S S S S S S S S S S S S S S S S S S S S S S S
--------------------------------------------------|
--------------------------------------------------|
--------------------------------------------------|
--------------------------------------------------|
--------7-7-7-7-7-7-------7-7-7-7-7-7-------7-7-7-|
--0-0-0-------------0-0-0-------------0-0-0-------|


  |-3-| |-3-| |-3-| |-3-|
  S S S S S S S S S S S S S S S S S S S S
------------------------------------------|
------------------------------------------|
------------------------------------------|
------------------------------------------|
--7-7-7-------7-7-7-7-7-7-----------------|
--------0-0-0-------------1-1-1-1-1-1-1-1-|


  |-3-| |-3-| |-3-| |-3-| |-3-| |-3-| |-3-| |-3-|
  S S S S S S S S S S S S S S S S S S S S S S S S
--------------------------------------------------|
--------------------------------------------------|
--------------------------------------------------|
--------------------------------------------------|
--------7-7-7-7-7-7-------7-7-7-7-7-7-------7-7-7-|
--0-0-0-------------0-0-0-------------0-0-0-------|


  |-3-| |-3-| |-3-| |-3-|
  S S S S S S S S S S S S S S S S S S S S
------------------------------------------|
------------------------------------------|
------------------------------------------|
------------------------------------------|
--7-7-7-------7-7-7-7-7-7-----------------|
--------0-0-0-------------1-1-1-1-1-1-1-1-|


  PM PM PM             PM PM PM           PM PM PM
  |--3--|  |-3-| |-3-| |--3--|  |-3-| |-3-|  |--3--| |-3-|
  S  S  S  S S S S S S S  S  S  S S S S S S  S  S  S S S S
-----------------------------------------------------------|
-----------------------------------------------------------|
-----------------------------------------------------------|
-----------------------------------------------------------|
--0--0--0--------------0--0--0------------0--0--0----------|
--0--0--0--------------0--0--0------------0--0--0----------|


  PM PM PM                   PM PM PM PM PM PM PM PM
  |--3--|  |-3-| |-3-| |-3-|
  S  S  S  S S S S S S S S S S  S  S  S  S  S  S  S
-----------------------------------------------------|
-----------------------------------------------------|
-----------------------------------------------------|
-----------------------------------------------------|
--0--0--0--------------------------------------------|
--0--0--0--------------------1--1--1--1--1--1--1--1--|


  PM PM PM             PM PM PM           PM PM PM
  |--3--|  |-3-| |-3-| |--3--|  |-3-| |-3-|  |--3--| |-3-|
  S  S  S  S S S S S S S  S  S  S S S S S S  S  S  S S S S
-----------------------------------------------------------|
-----------------------------------------------------------|
-----------------------------------------------------------|
-----------------------------------------------------------|
--0--0--0--------------0--0--0------------0--0--0----------|
--0--0--0--------------0--0--0------------0--0--0----------|


  PM PM PM                   PM PM PM PM PM PM PM PM
  |--3--|  |-3-| |-3-| |-3-|
  S  S  S  S S S S S S S S S S  S  S  S  S  S  S  S
-----------------------------------------------------|
-----------------------------------------------------|
-----------------------------------------------------|
-----------------------------------------------------|
--0--0--0--------------------------------------------|
--0--0--0--------------------1--1--1--1--1--1--1--1--|


  3    3   3    3 3    3   3    3    3    3   3    3  3     3    3    3
  Q    E.  Q    S Q    E.  Q    S    Q    E.  Q    S  Q     E.   Q    S
----------------------------------|-------------------------------------|
----------------------------------|-------------------------------------|
----------------------------------|-------------------------------------|
----------------------------------|-------------------------------------|
--5----5---5----L-7----7---7----L-|--8----8---8----L-10----10---10----L-|
--5----5---5----L-7----7---7----L-|--8----8---8----L-10----10---10----L-|


  3    3   3    3 3    3   3    3    3    3   3    3  3     3    3    3
  Q    E.  Q    S Q    E.  Q    S    Q    E.  Q    S  Q     E.   Q    S
----------------------------------|-------------------------------------|
----------------------------------|-------------------------------------|
----------------------------------|-------------------------------------|
----------------------------------|-------------------------------------|
--5----5---5----L-7----7---7----L-|--8----8---8----L-10----10---10----L-|
--5----5---5----L-7----7---7----L-|--8----8---8----L-10----10---10----L-|


  3    3   3    3 3    3   3    3    3    3   3    3  3     3    3    3
  Q    E.  Q    S Q    E.  Q    S    Q    E.  Q    S  Q     E.   Q    S
----------------------------------|-------------------------------------|
----------------------------------|-------------------------------------|
----------------------------------|-------------------------------------|
----------------------------------|-------------------------------------|
--5----5---5----L-7----7---7----L-|--8----8---8----L-10----10---10----L-|
--5----5---5----L-7----7---7----L-|--8----8---8----L-10----10---10----L-|


  3    3   3    3 3    3   3    3    3    3   3    3  3     3    3    3
  Q    E.  Q    S Q    E.  Q    S    Q    E.  Q    S  Q     E.   Q    S
----------------------------------|-------------------------------------|
----------------------------------|-------------------------------------|
----------------------------------|-------------------------------------|
----------------------------------|-------------------------------------|
--5----5---5----L-7----7---7----L-|--8----8---8----L-10----10---10----L-|
--5----5---5----L-7----7---7----L-|--8----8---8----L-10----10---10----L-|


  W                   W                   W                   W
-------------------|-------------------|-------------------|--------------|
-------------------|-------------------|-------------------|--------------|
-------------------|-------------------|-------------------|--------------|
-------------------|-------------------|-------------------|--------------|
--0----------------|--L----------------|--L----------------|--L-----------|
--0----------------|--L----------------|--L----------------|--L-----------|


                                 |--3--|
  H.             Q       E  E  S E  E  E  E  E  E  S
---------------<>0----|------------------------------|
----------------------|------------------------------|
----------------------|------------------------------|
----------------------|------------------------------|
--L-------------------|--0--0----0--0--0-----0--0----|
--L-------------------|--0--0----0--0--0-----0--0----|


  |--3--|             |--3--|               |--3--|
  E  E  E  E  E  E  S E  E  E  S    E  E  S E  E  E  E  E  E  S
---------------------------------|------------------------------|
---------------------------------|------------------------------|
---------------------------------|------------------------------|
---------------------------------|------------------------------|
--0--0--0-----0--0----0--0--0----|--0--0----0--0--0-----0--0----|
--0--0--0-----0--0----0--0--0----|--0--0----0--0--0-----0--0----|


  |--3--|             |--3--|
  E  E  E  E  E  E  S E  E  E  S
---------------------------------|
---------------------------------|
---------------------------------|
---------------------------------|
--0--0--0-----0--0----0--0--0----|
--0--0--0-----0--0----0--0--0----|


  These opens vary between 2 guitars, play both...
                                                        |--3--|
  E                                                E  S E  E  E  E  E  E  S
----------------------------------------------------------------------------|
----------------------------------------------------------------------------|
----------------------------------------------------------------------------|
----------------------------------------------------------------------------|
----------------------------------------------------------------------------|
--0-----------------------------------------------------0--0--0-----0-------|


  Of them if you're playing on your own
  |--------------------3-------------------|             |--3--|
  E                                     E  E  E  E  E  S E  E  E  S
--------------------------------------------------------------------|
--------------------------------------------------------------------|
--------------------------------------------------------------------|
--------------------------------------------------------------------|
--------------------------------------------------------------------|
--0-------------------------------------0--0-----0-------0--0--0----|


                      Let these ring out
          |--3--|
  E  E  S E  E  E  E  E                                               E  S
---------------------------------------------------------------------------|
---------------------------------------------------------------------------|
---------------------------------------------------------------------------|
---------------------------------------------------------------------------|
----------------------0-----------------------------------------------0----|
--0-------0--0--0-----0-----------------------------------------------0----|


          |--3--|                |--3--|             |--3--|
  E  E  S E  E  E  E  E  E  S    E  E  E  E  E  E  S E  E  E  S
------------------------------|---------------------------------|
------------------------------|---------------------------------|
------------------------------|---------------------------------|
------------------------------|---------------------------------|
--0--0----0--0--0-----0--0----|--0--0--0-----0--0----0--0--0----|
--0--0----0--0--0-----0--0----|--0--0--0-----0--0----0--0--0----|


          |--3--|
  E  E  S E  E  E  E.     Q    Q    Q    Q       Q    Q    Q    Q
-----------------------|----------------------|----------------------|
-----------------------|-------6---------6----|-------6---------6----|
-----------------------|--9---------9---------|--7---------7---------|
-----------------------|----------------------|----------------------|
--0--0----0--0--0------|----------------------|----------------------|
--0--0----0--0--0------|----------------------|----------------------|


  Q    Q    Q    Q       Q    Q    Q    Q       Q    Q    Q    Q
----------------------|----------------------|----------------------|
-------6---------6----|-------6---------6----|-------6---------6----|
--9---------9---------|--7---------7---------|--9---------9---------|
----------------------|----------------------|----------------------|
----------------------|----------------------|----------------------|
----------------------|----------------------|----------------------|


  Q    Q    Q    Q       Q    Q    Q    Q       Q    H.
----------------------|----------------------|--------------------|
-------6---------6----|-------6---------6----|--------------------|
--7---------7---------|--9---------9---------|--7-----------------|
----------------------|----------------------|--------------------|
----------------------|----------------------|--------------------|
----------------------|----------------------|--------------------|


  3    3   3    3 3    3   3    3    3    3   3    3  3     3    3    3
  Q    E.  Q    S Q    E.  Q    S    Q    E.  Q    S  Q     E.   Q    S
----------------------------------|-------------------------------------|
----------------------------------|-------------------------------------|
----------------------------------|-------------------------------------|
----------------------------------|-------------------------------------|
--5----5---5----L-7----7---7----L-|--8----8---8----L-10----10---10----L-|
--5----5---5----L-7----7---7----L-|--8----8---8----L-10----10---10----L-|


  3    3   3    3 3    3   3    3    3    3   3    3  3     3    3    3
  Q    E.  Q    S Q    E.  Q    S    Q    E.  Q    S  Q     E.   Q    S
----------------------------------|-------------------------------------|
----------------------------------|-------------------------------------|
----------------------------------|-------------------------------------|
----------------------------------|-------------------------------------|
--5----5---5----L-7----7---7----L-|--8----8---8----L-10----10---10----L-|
--5----5---5----L-7----7---7----L-|--8----8---8----L-10----10---10----L-|


  3    3   3    3 3    3   3    3    3    3   3    3  3     3    3    3
  Q    E.  Q    S Q    E.  Q    S    Q    E.  Q    S  Q     E.   Q    S
----------------------------------|-------------------------------------|
----------------------------------|-------------------------------------|
----------------------------------|-------------------------------------|
----------------------------------|-------------------------------------|
--5----5---5----L-7----7---7----L-|--8----8---8----L-10----10---10----L-|
--5----5---5----L-7----7---7----L-|--8----8---8----L-10----10---10----L-|


  3    3   3    3 3    3   3    3    3    3   3    3  3     3    3    3
  Q    E.  Q    S Q    E.  Q    S    Q    E.  Q    S  Q     E.   Q    S
----------------------------------|-------------------------------------|
----------------------------------|-------------------------------------|
----------------------------------|-------------------------------------|
----------------------------------|-------------------------------------|
--5----5---5----L-7----7---7----L-|--8----8---8----L-10----10---10----L-|
--5----5---5----L-7----7---7----L-|--8----8---8----L-10----10---10----L-|


  3    3   3    3 3    3   3    3    3    3   3    3  3     3    3    3
  Q    E.  Q    S Q    E.  Q    S    Q    E.  Q    S  Q     E.   Q    S
----------------------------------|-------------------------------------|
----------------------------------|-------------------------------------|
----------------------------------|-------------------------------------|
----------------------------------|-------------------------------------|
--5----5---5----L-7----7---7----L-|--8----8---8----L-10----10---10----L-|
--5----5---5----L-7----7---7----L-|--8----8---8----L-10----10---10----L-|


  3    3   3    3 3    3   3    3    3    3   3    3  3     3    3    3
  Q    E.  Q    S Q    E.  Q    S    Q    E.  Q    S  Q     E.   Q    S
----------------------------------|-------------------------------------|
----------------------------------|-------------------------------------|
----------------------------------|-------------------------------------|
----------------------------------|-------------------------------------|
--5----5---5----L-7----7---7----L-|--8----8---8----L-10----10---10----L-|
--5----5---5----L-7----7---7----L-|--8----8---8----L-10----10---10----L-|


  3    3   3    3 3    3   3    3    3    3   3    3  3     3    3    3
  Q    E.  Q    S Q    E.  Q    S    Q    E.  Q    S  Q     E.   Q    S
----------------------------------|-------------------------------------|
----------------------------------|-------------------------------------|
----------------------------------|-------------------------------------|
----------------------------------|-------------------------------------|
--5----5---5----L-7----7---7----L-|--8----8---8----L-10----10---10----L-|
--5----5---5----L-7----7---7----L-|--8----8---8----L-10----10---10----L-|


  3    3   3    3 3    3   3    3    3    3   3    3  3     3    3    3
  Q    E.  Q    S Q    E.  Q    S    Q    E.  Q    S  Q     E.   Q    S
----------------------------------|-------------------------------------|
----------------------------------|-------------------------------------|
----------------------------------|-------------------------------------|
----------------------------------|-------------------------------------|
--5----5---5----L-7----7---7----L-|--8----8---8----L-10----10---10----L-|
--5----5---5----L-7----7---7----L-|--8----8---8----L-10----10---10----L-|


  E  E  H.              W                   W
---------------------|-------------------|-------------------||
---------------------|-------------------|-------------------||
---------------------|-------------------|-------------------||
---------------------|-------------------|-------------------||
--5-----5------------|--L----------------|--L----------------||
--5-----5------------|--L----------------|--L----------------||




Duration Legend
---------------
W - whole
H - half
Q - quarter
E - 8th
S - 16th
T - 32nd
X - 64th
. - note dotted
|-n-|  - n-tuplets


Tablature Legend
----------------
L - tied note
x - dead note
g - grace note
(n) - ghost note
> - accentuded note
NH - natural harmonic
AH - artificial harmonic
TH - tapped harmonic
SH - semi harmonic
PH - pitch harmonic
h - hammer on
p - pull off
b - bend
br - bendRelease
pb - preBend
pbr - preBendRelease
brb - bendReleaseBend
\n/ - tremolo bar dip
\n - tremolo bar dive
-/n - tremolo bar Release up
/n\ - tremolo bar inverted dip
/n - tremolo bar return
-\n - tremolo bar Release down
S - shift slide
s - legato slide
/ -  slide into from below or out of upwards
\ -  slide into from above or out of downwards
~ - vibrato
W - wide vibrato
tr - trill
TP - tremolo picking
T - tapping
S - slap
P - pop
< - fade in
^ - brush up
v - brush down
Добавлено: 03.05.2012
Другие материалы по этой песне:

Страница создана 03.05.2012
http://primanota.ru/liferuiner/sose-chords.htm
Привет, Гость.
Предлагаем пройти революционный курс по гитаре.
Подарок от PrimaNota.Ru, забирай!