PrimaNota.ru - самый крупный в мире бесплатный архив песенных текстов, аккордов, табулатур и нот


Liferuiner - If Being Fake Was An Olympic Sport - таба, бас-таба, видео

Регистрация Запомнить меня
Войти через:  Facebook Google Twitter Vk Yandex Mail.ru

Liferuiner - If Being Fake Was An Olympic Sport - таба, бас-таба, видео

Печатать
Просмотров: 123
this is their best song
so here it is
BLAAM!!!

e---------------------------------------------------------------------------|
B---------------------------------------------------------------------------|
G---------------------------------------------------------------------------|
D-0--0--0--0--0-------------------------------------------------------------|
A-0--0--0--0--0-----000000000-0-0-0-0-00-00--000000000-0-0-0-0-00-00--------|
E-0--0--0--0--0-----000000000-0-0-0-0-00-00--000000000-0-0-0-0-00-00--------|

e---------------------------------------------------------------------------|
B---------------------------------------------------------------------------|
G---------------------------------------------------------------------------|
D---------------------------------------------------------------------------|
A-000000000-0-0-0-0-00-00--000000000-0-0-0-0-00-00--------------------------|
E-000000000-0-0-0-0-00-00--000000000-0-0-0-0-00-00--------------------------|

the first time only one guitar is playing, then guitar #2 comes in
e---------------------------------------------------------------------------|
B---------------------------------------------------------------------------|
G---------------------------------------------------------------------------|
D---------------------------------------------------------------------------|
A------------------------------000000000-0-0-0-0-00-00----------------------|
E-000000000-----000000000------000000000-0-0-0-0-00-00----------------------|

e---------------------------------------------------------------------------|
B---------------------------------------------------------------------------|
G---------------------------------------------------------------------------|
D---------------------------------------------------------------------------|
A-000000000-0-0-0-0-00-00--000000000-0-0-0-0-00-00--------------------------|
E-000000000-0-0-0-0-00-00--000000000-0-0-0-0-00-00--------------------------|

e---------------------------------------------------------------------------|
B---------------------------------------------------------------------------|
G---------------------------------------------------------------------------|
D-------------------------0-------------------------------------------------|
A-000000000-0-0-0-0-00-00-0-------------------------------------------------|
E-000000000-0-0-0-0-00-00-0-------------------------------------------------|

LET THAT SH*T RING!!! then slide yo pick down the fretboard

e-------------------------------------------------------------------------|
B-------------------------------------------------------------------------|
G-------------------------------------------------------------------------|X2
D-------------------------------------------------------------------------|
A-------------------------------------------------------------------------|
E-0-0-5-0-9-0-0-5-0-0-4-0-8--0-0-5-0-9-0-0-5-0-0-4-0-8--------------------|

e------------------------------------------------------------------------|
B------------------------------------------------------------------------|
G------------------------------------------------------------------------|X3
D-5-4-3-5-4-3-5-4-3-5-4-3------------------------------------------------|
A-5-4-3-5-4-3-5-4-3-5-4-3------------------------------------------------|
E-5-4-3-5-4-3-5-4-3-5-4-3-000-000-000-000-000-000-000-000----------------|

e---------------------------------------------------------------------------|
B---------------------------------------------------------------------------|
G---------------------------------------------------------------------------|
D---------------------------------------------------------------------------|
A---------------------------------000-000-000-000-000-000-000-000-000-000---|
E-000-000-000-000-000-000-000-000-000-000-000-000-000-000-000-000-000-000---|

e---------------------------------------------------------------------------|
B---------------------------------------------------------------------------|
G---------------------------------------------------------------------------|
D--------------------------5-4-3-5-4-3-5-4-3-5-4-3--------------------------|
A-000-000-000-000-000-000--5-4-3-5-4-3-5-4-3-5-4-3-0-0-0-0------------------|
E-000-000-000-000-000-000--5-4-3-5-4-3-5-4-3-5-4-3-0-0-0-0------------------|

e---------------------------------------------------------------------------|
B---------------------------------------------------------------------------|
G---------------------------------------------------------------------------|
D---------------------------------------------------------------------------|
A-00-00-0-0-0-0-----------00-00-0-0-0-0-----------00-00-0-0-0-0-------------|
E-00-00-0-0-0-0-----------00-00-0-0-0-0-----------00-00-0-0-0-0-------------|

e---------------------------------------------------------------------------|
B---------------------------------------------------------------------------|
G---------------------------------------------------------------------------|
D-------0-------------------------------------------------------------------|
A-00-00-0-------------------------------------------------------------------|
E-00-00-0----------------slide the pick once more---------------------------|

e-------------------------------------------------------------------------|
B-------------------------------------------------------------------------|
G-------------------------------------------------------------------------|X2
D-------------------------------------------------------------------------|
A-------------------------------------------------------------------------|
E-0-0-5-0-9-0-0-5-0-0-4-0-8--0-0-5-0-9-0-0-5-0-0-4-0-8--------------------|

e-14p12h14p12h14p12h14p12h14p12h14p12h14p12h14p12-15p12h15p12h15p12h15p12h--|
B---------------------------------------------------------------------------|
G---------------------------------------------------------------------------|
D---------------------------------------------------------------------------|
A---------------------------------------------------------------------------|
E---------------------------------------------------------------------------|

e-15p12h15p12h15p12h15p12-17p12h17p12h17p12h17p12h17p12h17p12h17p12h17p12---|
B---------------------------------------------------------------------------|
G---------------------------------------------------------------------------|
D---------------------------------------------------------------------------|
A---------------------------------------------------------------------------|
E---------------------------------------------------------------------------|

e-15p12h15p12h15p12h15p12h15p12h15p12h15p12h15p12--18b----------------------|
B---------------------------------------------------------------------------|
G---------------------------------------------------------------------------|
D---------------------------------------------------------------------------|
A---------------------------------------------------------------------------|
E---------------------------------------------------------------------------|


check out liferuiner at http://www.myspace.com/xlifexruinerx
Добавлено: 30.03.2012
Вам также может быть интересно:
Другие материалы по этой песне:
  • Аккорды и текст

Страница создана 30.03.2012
http://primanota.ru/liferuiner/if-being-fake-was-an-olympic-sport-chords.htm
Привет, Гость.
Предлагаем пройти революционный курс по гитаре.
Подарок от PrimaNota.Ru, забирай!