PrimaNota.ru - самый крупный в мире бесплатный архив песенных текстов, аккордов, табулатур и нот


Lifer - White Lines Dont Do It - таба, видео

Регистрация Запомнить меня
Войти через:  Facebook Google Twitter Vk Yandex Mail.ru

Lifer - White Lines Dont Do It - таба, видео

Печатать
Просмотров: 97
-------------------------------------------------------------------------------
                             "White Lines (Don't Do It)" - Driver
-------------------------------------------------------------------------------

Tabbed by: blakeg14
Email: blakeg14@yahoo.com

Tuning: Drop D (D,A,D,G,B,e)

This song is a cover by Driver, A.K.A. Lifer, A.K.A. Strangers With Candy.

Main riff

E|------------------------------|
B|------------------------------|
G|------------------------------|
D|-0-2-0-2-0-2-0-2-(2)-x--------|
A|-0-2-0-2-0-2-0-2-(2)-x--------|
D|-0-2-0-2-0-2-0-2-(2)-x--------|

Repeated throughout entire song...

Riff with octaver effect - utilizes double hammer-ons, as fast as "grace" notes 1:04

           10x               Fill played once at 2:54 then two more times near end

E|-------------------||-8--5----------------------------|
B|-------------------||------8--5-----------------------|
G|-------------------||-----------8-7-(5)---------------|
D|-7-5-0h5h7-5-------||---------------------------------|
A|-------------------||---------------------------------|
D|-------------------||---------------------------------|

"Higher baby..." Bridge at 1:20
E|------------------------------------------|
B|------------------------------------------|
G|------------------------------------------|
D|-7-7-7--x7-7-7-/10---7-7-7--7-7-7---------|
A|-7-7-7--x7-7-7-/10---7-7-7--7-7-7---------|
D|-7-7-7--x7-7-7-/10---7-7-7--7-7-7---------|
 pm.....

************************************

| /   slide up
| \   slide down
| h   hammer-on
| p   pull-off
| ~   vibrato
| +   harmonic
| x   Mute note
| b   Bend
| pb  Pre-bend
| br  Bend release
| pbr Pre-bend release
| brb Bend release bend
| pm  Palm mute

************************************
Добавлено: 04.08.2013
Другие материалы по этой песне:
  • Аккорды и текст

Страница создана 04.08.2013
http://primanota.ru/lifer/white-lines-dont-do-it-chords.htm
Привет, Гость.
Предлагаем пройти революционный курс по гитаре.
Подарок от PrimaNota.Ru, забирай!