PrimaNota.ru - самый крупный в мире бесплатный архив песенных текстов, аккордов, табулатур и нот


Lifelover - Dodens Landsvag - текст песни, таба, видео

Регистрация Запомнить меня
Войти через:  Facebook Google Twitter Vk Yandex Mail.ru

Lifelover - Dodens Landsvag - текст песни, таба, видео

Печатать
Просмотров: 189
Lifelover – Dödens Landsväg

Standard Tuning Ebgdae

r = let ring
ph = pinch harmonic
/ = slide up
\ = slide down
^ = bend

INTRO     Gitarr 2:
E |---------------------------------------------------------|
b |---------------------------------------------------------|
g |---------------------------------------------------------|
d |---------------------------------------------------------|
a |---------------------------------------------------------|
e |--55555555555-0000-11-333333333333333--------------------|

INTRO     Gitarr 1:
E |--------------------------------------------|
b |----5-6-5----5-6-5----8---------------------|
g |----------------------------7-----5--4------|
d |--7--------7--------------------------------|
a |--------------------------------------------|
e |--------------------------------------------|

PRE-VERSE
E |--------------------------------------|
b |--------------------------------------|
g |--------------------------------------|
d |--7r----7r--55555555--------- --------|
a |--7r----7r--33333333------------------|
e |--5r----5r----------------------------|

VERSE
E |--------------------------------------------------------------|
b |--------------------------------------------------------------|
g |--------------------------------------------------------------|
d |------------77777777------------------------------------------|
a |--77777777--55555555--33333333--22222222----------------------|
e |--55555555------------11111111--00000000----------------------|

PRE-BRIDGE
E |---------------------------------------------------------|
b |---------------------------------------------------------|
g |---------------------------------------------------------|
d |---------------------------------------------------------|
a |---------------------------------------------------------|
e |--55555555555-0000-11-333333333333333--------------------|

BRIDGE 1
E |--------------------------------------------|
b |--------------------------------------------|
g |-----------------5555-44-777777777777-7ph---|
d |--77777777777-------------------------------|
a |--------------------------------------------|
e |--------------------------------------------|

VERSE
E |-----------------------------------------------------------|
b |-----------------------------------------------------------|
g |-----------------------------------------------------------|
d |------------77777777---------------------------------------|
a |--77777777--55555555--33333333--22222222-------------------|
e |--55555555------------11111111--00000000-------------------|

CHORUS
E |-------------------------------------------|
b |----5-6-5----5-6-5----8--------------------|
g |----------------------------7----5--4------|
d |--7---------7------------------------------|
a |-------------------------------------------|
e |-------------------------------------------|

BRIDGE 2
E |--------------------------------------|
b |--------------------------------------|
g |----55-4r----55-4r--2/7r----7^--------|
d |--7----------7------------------------|
a |--------------------------------------|
e |--------------------------------------|

E |----------------------------------------------|
b |----------------------------------------------|
g |----55-4r----55-4r--2/7r----7ph---------------|
d |--7----------7----------------------7ph-------|
a |----------------------------------------------|
e |----------------------------------------------|

OUTRO
E |----------------------------------------------------------|
b |----------------------------------------------------------|
g |----------------------------------------------------------|
d |----------------------------------------------------------|
a |--7777777777777777--33333333--22222222--------------------|
e |--5555555555555555--11111111--00000000--------------------|

E |------------------------------------------------------------|
b |------------------------------------------------------------|
g |---------------77777777-------------------------------------|
d |--77777777--------------33333333-22222222--3r----3^---------|
a |--------------------------------------------------------2r--|
e |--------------------------------------------------------0r--|


There ya go some more of the excellent Lifelovers!
Tabbed by ear as always so please correct me if you find anything wrong. Cya! :D
Добавлено: 17.08.2013
Другие материалы по этой песне:
  • Аккорды и текст

Страница создана 17.08.2013
http://primanota.ru/lifelover/dodens-landsvag-chords.htm
Привет, Гость.
Предлагаем пройти революционный курс по гитаре.
Подарок от PrimaNota.Ru, забирай!