PrimaNota.ru - самый крупный в мире бесплатный архив песенных текстов, аккордов, табулатур и нот


Lifelover - Brand - текст песни, таба, видео

Регистрация Запомнить меня
Войти через:  Facebook Google Twitter Vk Yandex Mail.ru

Lifelover - Brand - текст песни, таба, видео

Печатать
Просмотров: 210
Lifelover – Brand

Drop D Tuning!

INTRO 1 GUITAR 1:
E |--------------------------------------|
b |--------------------------------------|
g |--7777777777777777--------------------|
d |--7777777777777777--5555555555555555--|
a |--5555555555555555--5555555555555555--|
d |--0000000000000000--5555555555555555--|

INTRO 2 GUITAR 1:
E |----------------------------------------|
b |----------------------------------------|
g |--7777777777777777----------------------|
d |--7777777777777777--55555555--11111111--|
a |--5555555555555555--55555555--11111111--|
d |--0000000000000000--55555555--11111111--|

INTRO GUITAR 2:
E |---------------------------------------------------|
b |---------------------------------------------------|
g |---------------------------------------------------|
d |--12-12-12-12-12-12-12-12-12-12-12-12-12-12-12-12--|
a |---------------------------------------------------|
d |---------------------------------------------------|

VERSE GUITAR 1:
E |--------------------------------------|
b |--------------------------------------|
g |--------------------------------------|
d |--4r------------1r--------------------|
a |--4r------------1r--------------------|
d |--4r------------1r--------------------|

VERSE GUITAR 2:
E |--------------------------------------|
b |--------------------------------------|
g |--------------------------------------|
d |---------7^-------------4^------------|
a |--------------------------------------|
d |--------------------------------------|

MIDDLE PLAY BOTH GUITARS:
E |-----------------------------|
b |-----------------------------|
g |-----------------------------|
d |-----------------------------|
a |-----------------------------|
d |--111111111111^1^1^1^1^------|

VERSE GUITAR 1:
E |--------------------------------------|
b |--------------------------------------|
g |--------------------------------------|
d |--4r------------1r--------------------|
a |--4r------------1r--------------------|
d |--4r------------1r--------------------|

VERSE GUITAR 2:
E |--------------------------------------|
b |--------------------------------------|
g |--------------------------------------|
d |---------7^-------------4^------------|
a |--------------------------------------|
d |--------------------------------------|

CHORUS 1 GUITAR 1:
E |--------------------------------------|
b |--------------------------------------|
g |--7777777777777777--------------------|
d |--7777777777777777--5555555555555555--|
a |--5555555555555555--5555555555555555--|
d |--0000000000000000--5555555555555555--|

CHORUS 2 GUITAR 1:
E |----------------------------------------|
b |----------------------------------------|
g |--7777777777777777----------------------|
d |--7777777777777777--55555555--11111111--|
a |--5555555555555555--55555555--11111111--|
d |--0000000000000000--55555555--11111111--|

CHORUS GUITAR 2:
E |---------------------------------------------------|
b |---------------------------------------------------|
g |---------------------------------------------------|
d |--12-12-12-12-12-12-12-12-12-12-12-12-12-12-12-12--|
a |---------------------------------------------------|
d |---------------------------------------------------|

BREAK 1 BOTH GUITARS:
E |---------------------------------|
b |---------------------------------|
g |---------------------------------|
d |---------------------------------|
a |---------------------------------|
d |--1111111111122222---------------|





BREAK 2 BOTH GUITARS:
E |-----------------------------------|
b |-----------------------------------|
g |-----------------------------------|
d |-----------------------1-4---------|
a |------------------1-4--------------|
d |--111111111111---------------------|

MIDDLE PLAY BOTH GUITARS:
E |---------------------------------|
b |---------------------------------|
g |---------------------------------|
d |---------------------------------|
a |---------------------------------|
d |--1111111111122222---------------|

BREAK 2 BOTH GUITARS:
E |-----------------------------------|
b |-----------------------------------|
g |-----------------------------------|
d |-----------------------1-4---------|
a |------------------1-4--------------|
d |--111111111111---------------------|

OUTRO BOTH GUITARS:
E |-----------------------------------|
b |-----------------------------------|
g |-----------------------------------|
d |--1--1--1--1-222-------------------|
a |--1--1--1--1-222-------------------|
d |--1--1--1--1-222-------------------|

Добавлено: 23.10.2013
Другие материалы по этой песне:
  • Аккорды и текст

Страница создана 23.10.2013
http://primanota.ru/lifelover/brand-chords.htm
Привет, Гость.
Предлагаем пройти революционный курс по гитаре.
Подарок от PrimaNota.Ru, забирай!