PrimaNota.ru - самый крупный в мире бесплатный архив песенных текстов, аккордов, табулатур и нот


Lifehouse - May - текст песни, таба, видео

Регистрация Запомнить меня
Войти через:  Facebook Google Twitter Vk Yandex Mail.ru

Lifehouse - May - текст песни, таба, видео

Печатать
Просмотров: 159
Уроки эстрадного вокала в Санкт-Петербурге
Band: Lifehouse
Song: May


I figured out 2 ways to play this song.

1. Capo on 4th fret (It's the best Version)
2. Standard Tuning


Please rate it.

1) Capo 4th fret:

e------>G#
B------>D#
G------>B
D------>F#
A------>C#
E------>G#

--------------
Intro/Verse: |
--------------


G#|-3--3--3-3-|-3-3-3-3-|-3--3--3-3-|-3-3-3-3-|
D#|-3--3--3-3-|-3-3-3-3-|-3--3--3-3-|-3-3-3-3-|
B-|-0--0--0-0-|-0-0-0-0-|-0--0--0-0-|-0-0-0-0-|
F#|-0--0--0-0-|-2-2-2-2-|-2--2--2-2-|-0-0-0-0-|
C#|-2--2--2-2-|-2-2-2-2-|-3--3--3-3-|-x-x-x-x-|
G#|-3--3--3-3-|-0-0-0-0-|-----------|-2-2-2-2-|



--------
Chorus:|
--------

G#|-3--3--3-3-3-3-3-3-3-3-|-3--3--3-3-3-3-3-3-3-3-|-3--3--3-3-3-3-3-3-3-3-|
D#|-3--3--3-3-3-3-3-3-3-3-|-3--3--3-3-3-3-3-3-3-3-|-3--3--3-3-3-3-3-3-3-3-|
B-|-0--0--0-0-0-0-0-0-0-0-|-2--2--2-2-2-2-2-2-2-2-|-0--0--0-0-0-0-0-0-0-0-|
F#|-2--2--2-2-2-2-2-2-2-2-|-0--0--0-0-0-0-0-0-0-0-|-2--2--2-2-2-2-2-2-2-2-|
C#|-2--2--2-2-2-2-2-2-2-2-|-----------------------|-3--3--3-3-3-3-3-3-3-3-|
G#|-0--0--0-0-0-0-0-0-0-0-|-----------------------|-----------------------|


G#|-3--3--3-3-3-3-3-3-3-3-|
D#|-3--3--3-3-3-3-3-3-3-3-|
B-|-0--0--0-0-0-0-0-0-0-0-|
F#|-0--0--0-0-0-0-0-0-0-0-|
C#|-2--2--2-2-2-2-x-x-x-x-|
G#|-3--3--3-3-3-3-2-2-2-2-|

----------
Bridge:  |
----------

G#|-3-|-3-|-3-|-3-|
D#|-3-|-3-|-3-|-3-|
B-|-0-|-0-|-0-|-0-|
F#|-0-|-2-|-2-|-2-|
C#|-2-|-3-|-2-|-3-|
G#|-3-|---|-0-|---|

At the end of the Bridge:

"Carry me the rest of the way"

G#|-3-|-3-|-3-3-3-3-3-3-3-|
D#|-3-|-3-|-3-3-3-3-3-3-3-|
B-|-0-|-2-|-0-0-0-0-0-0-0-|
F#|-2-|-0-|-2-2-2-2-2-2-2-|
C#|-2-|---|-3-3-3-3-3-3-3-|
G#|-0-|---|---------------|


-----------------------
Breaking Part (Chorus)|
-----------------------

--------------
Solo: (3:34) |
--------------


G#|---------------|
D#|---------------|
B-|-0h2p0-2-4-2-0-|    3x
F#|---------------|
C#|---------------|
G#|---------------|

Then:

G#|---------|
D#|---------|
B-|-4-5-7-7-|
F#|---------|
C#|---------|
G#|---------|

--------
Chorus |
--------

-------
Outro:|
-------



  2x


G#|-3--^-|-3--^-|-3--^-|-3--^--3--^-|
D#|-3--|-|-3--|-|-3--|-|-3--|--3--|-|
B-|-0--|-|-2--|-|-0--|-|-0--|--0--|-|
F#|-2--|-|-0--|-|-2--|-|-0--|--0--|-| 
C#|-2--|-|------|-3--|-|-2--|--x--|-|
G#|-0--|-|------|------|-3--|--2--|-|
--------------------------------------------------------------------

2) Standart Tuning ("Emergency Version")

You can use this Version if you don't have a capo, but to play it like it is
you have to play the Version above.


I make this short:


|-----Verse-----|-------Chorus-------|

 B5  G#5 E'5 Bb5  G#m  F#  E   B  B/Bb

e---------------|--4---2---0---------|
B---------------|--4---2---0---4---4-|
G-4-------9-----|--4---3---1---4---4-|
D-4---6---9---8-|--6---4---2---4---4-|
A-2---6---7---8-|--6---4---2---2---1-|
E-----4-------6-|--4---2---0---------|


-----------
Verse:    |
-----------

Use power Chords:


B5, G#5, E'5, Bb5;

---------
Chorus: |
---------

G#m, F#, E, B, B/Bb;

---------
Bridge: |
---------

B, E, G#m, E;

Right befor the Breaking Part:

G#m, F#, E;

-------------------------
Breaking Part = Chorus  |
-------------------------

G#m, F#, E, B,B /Bb;

-------
Solo: |
-------

Solo: (3:34)

e|---------------|
B|---------------|
G|-4h6p4-6-8-6-4-|   3x
D|---------------|
A|---------------|
E|---------------|

Then:

e|---------------|
B|---------------|
G|-8-9--11-11----|   
D|---------------|
A|---------------|
E|---------------|

Outro: (Hit the Chords once)

G#m, F#, E, B, B/Bb;


Please rate it.

© by tiadoro
Добавлено: 06.05.2012
Другие материалы по этой песне:
  • Аккорды и текст

Страница создана 06.05.2012
http://primanota.ru/lifehouse/may-chords.htm
Привет, Гость.
Предлагаем пройти революционный курс по гитаре.
Подарок от PrimaNota.Ru, забирай!