PrimaNota.ru - самый крупный в мире бесплатный архив песенных текстов, аккордов, табулатур и нот


Lifehouse - Joshua - текст песни, таба, видео

Регистрация Запомнить меня
Войти через:  Facebook Google Twitter Vk Yandex Mail.ru

Lifehouse - Joshua - текст песни, таба, видео

Печатать
Просмотров: 168
Hey this is my Version of the Song "Joshua" by Lifehouse

It's such a nice Song and easy as well.

Please rate it

Tuning: EADGBe (Standard)



Intro:

Guitar 1:

e-8-7-----|----------|
B------7--|-8-7------|
G---------|------7---|
D---------|--------7-|
A---------|----------|
E---------|----------|


Guitar 2:

e----------|----------|----------|----0---|
B-------3--|-------3--|------3---|------3-|
G----------|----------|--------2-|--------|
D---2------|---2------|---0------|-0------|
A----------|-3--------|----------|--------|
E-0--------|----------|-3--------|--------|


Guitar 3:

e-0---0--0-0-|-0-0--0--0-|-0---0--0-0-|-0-0--0--0-|
B-3---3--3-3-|-3-3--3--3-|-3---3--3-3-|-3-3--3--3-|
G-0---0--0-0-|-0-0--0--0-|-0---0--0-0-|-2-2--2--2-|
D-2---2--2-2-|-2-2--2--2-|-0---0--0-0-|-0-0--0--0-|
A-2---2--2-2-|-3-3--3--3-|-2---2--2-2-|-----------|
E-0---0--0-0-|-----------|-3---3--3-3-|-----------|


Verse:

Guitar 2:


e----------|----------|----------|----0---|
B-------3--|-------3--|------3---|------3-|
G----------|----------|--------2-|--------|
D---2------|---2------|---0------|-0------|
A----------|-3--------|----------|--------|
E-0--------|----------|-3--------|--------|


Guitar 3:

e-0---0--0-0-|-0-0--0--0-|-0---0--0-0-|-0-0--0--0-|
B-3---3--3-3-|-3-3--3--3-|-3---3--3-3-|-3-3--3--3-|
G-0---0--0-0-|-0-0--0--0-|-0---0--0-0-|-2-2--2--2-|
D-2---2--2-2-|-2-2--2--2-|-0---0--0-0-|-0-0--0--0-|
A-2---2--2-2-|-3-3--3--3-|-2---2--2-2-|-----------|
E-0---0--0-0-|-----------|-3---3--3-3-|-----------|


Guitar 1: (Play the Harmonics)

e-(7)------------(12)--------|------------|
B----(7)-------------(12)----|-------(12)-|
G-------(7)------------------|----(7)-----|
D----------------------------|-(7)--------|
A----------------------------|------------|
E----------------------------|------------|


Chorus:

Guitar 1:

e-------------|---------------|-----------|
B---------3---|-----3--3/5\3--|-----------|
G-----2h4---4-|-2h4-----------|-2h4p2-----|
D-2-5---------|---------------|-------5-2-|
A-------------|---------------|-----------|
E-------------|---------------|-----------|


Guitar 3:


e-0---0--0-0-|-0-0--0--0-|-0---0--0-0-|-0-0--0--0-|
B-3---3--3-3-|-3-3--3--3-|-3---3--3-3-|-3-3--3--3-|
G-0---0--0-0-|-0-0--0--0-|-0---0--0-0-|-2-2--2--2-|
D-2---2--2-2-|-2-2--2--2-|-0---0--0-0-|-0-0--0--0-|
A-2---2--2-2-|-3-3--3--3-|-2---2--2-2-|-----------|
E-0---0--0-0-|-----------|-3---3--3-3-|-----------|



Interlude:

Guitar 2:

e----------|----------|----------|----0---|
B-------3--|-------3--|------3---|------3-|
G----------|----------|--------2-|--------|
D---2------|---2------|---0------|-0------|
A----------|-3--------|----------|--------|
E-0--------|----------|-3--------|--------|



Repeat Verse


Repeat Chorus


Bridge:

// I'm pretty sure the bass is playing the tunes but you can also play the chords below.

Guitar 2: (Palm Mute)

e-------|-------|-------|-----|
B-------|-------|-------|-----|
G-------|-5-5---|-------|-7---|
D-2-2---|-5-5---|-5-5---|-7---|
A-2-2---|-3-3---|-5-5---|-5---|
E-0-0---|-------|-3-3---|-----|


Guitar 1:

e---------|---------|---------|-----------|
B-3h5-3h5-|-3h5-3h5-|-3h5-3h5-|-/7--5-3-0-|
G---------|---------|---------|-/7--------|
D---------|---------|---------|-----------|
A---------|---------|---------|-----------|
E---------|---------|---------|-----------|



Interlude

Chorus 2x


Outro:

Guitar 1:

e-8-7-----|----------|
B------7--|-8-7------|
G---------|------7---|
D---------|--------7-|
A---------|----------|
E---------|----------|


Guitar 2:

e----------|----------|----------|----0---|
B-------3--|-------3--|------3---|------3-|
G----------|----------|--------2-|--------|
D---2------|---2------|---0------|-0------|
A----------|-3--------|----------|--------|
E-0--------|----------|-3--------|--------|



Don't forget to rate it please

Have fun.

© by tiadoro
Добавлено: 24.03.2012
Другие материалы по этой песне:
  • Аккорды и текст

Страница создана 24.03.2012
http://primanota.ru/lifehouse/joshua-chords.htm
Привет, Гость.
Предлагаем пройти революционный курс по гитаре.
Подарок от PrimaNota.Ru, забирай!