PrimaNota.ru - самый крупный в мире бесплатный архив песенных текстов, аккордов, табулатур и нот


Life Without Buildings - New Town - таба, видео

Регистрация Запомнить меня
Войти через:  Facebook Google Twitter Vk Yandex Mail.ru

Life Without Buildings - New Town - таба, видео

Печатать
Просмотров: 55
Уроки эстрадного вокала в Санкт-Петербурге
-------------------------------------------------------------------------------
                      New Town - Life Without Buildings
-------------------------------------------------------------------------------

Tuning: Standard

Intro pt. 1:

e|---------------------------------------------------------------------------|
B|---------------------------------------------------------------------------|
G|---------------------------------------------------------------------------|
D|--0-------0-0-0-0-0-0-0-0-0-0-0-0-0-0-0------------------------------------|
A|--5------------------------------------------------------------------------|
E|--------------7---------------7--------------------------------------------|

Intro pt 2./Verses:

during the verse johnston does not always use this order, sometimes only playing the first riff

e|---------------------------------------------------------------------------|
B|---------------------------------------------------------------------------|
G|---------------------------------------------------------------------------|
D|--7-7-7-7-7-7-7-7-7-7-7-7-7-4-4-4-4-4-4-4-4-4-4-4-4-4-4-4-4-4-4------------|
A|----------------------------------------------------------------0h2-5-2----|
E|---------------------------------------------------------------------------|

e|---------------------------------------------------------------------------|
B|---------------------------------------------------------------------------|
G|---------------------------------------------------------------------------|
D|--7-7-7-7-7-7-7-7-7-7-7-7-9-7-7-4-4-4-4-4-4-4-4-4-4-4-4-4-4-4-4------------|
A|----------------------------------------------------------------0h2-5-2----|
E|---------------------------------------------------------------------------|

e|-------------------------------------------------------------------------------|
B|-------------------------------------------------------------------------------|
G|-------------------------------------------------------------------------------|
D|--7-7-7-7-7-7-7-7-7-7-7-12-12-11-11-4-4-4-4-4-4-4-4-4-4-4-4-4-4-4-4------------|
A|--------------------------------------------------------------------0h2-5-2----|
E|-------------------------------------------------------------------------------|

Choruses:

e|---------------------------------------------------------------------------|
B|---------------------------------------------------------------------------|
G|--7-7-7-7-7-7-7-7-7-7-7-7-7-4-4-4-4-4-4-4-4-4-4-4-4-4-4-4-4-4-4------------|
D|--7-7-7-7-7-7-7-7-7-7-7-7-7-4-4-4-4-4-4-4-4-4-4-4-4-4-4-4-4-4-4------------|
A|----------------------------------------------------------------0h2-5-2----|
E|---------------------------------------------------------------------------|

e|---------------------------------------------------------------------------|
B|---------------------------------------------------------------------------|
G|--7-7-7-7-7-7-7-7-7-7-7-7-9-7-7-4-4-4-4-4-4-4-4-4-4-4-4-4-4-4-4------------|
D|--7-7-7-7-7-7-7-7-7-7-7-7-9-7-7-4-4-4-4-4-4-4-4-4-4-4-4-4-4-4-4------------|
A|----------------------------------------------------------------0h2-5-2----|
E|---------------------------------------------------------------------------|

e|-------------------------------------------------------------------------------|
B|-------------------------------------------------------------------------------|
G|--7-7-7-7-7-7-7-7-7-7-7-12-12-11-11-4-4-4-4-4-4-4-4-4-4-4-4-4-4-4-4------------|
D|--7-7-7-7-7-7-7-7-7-7-7-12-12-11-11-4-4-4-4-4-4-4-4-4-4-4-4-4-4-4-4------------|
A|--------------------------------------------------------------------0h2-5-2----|
E|-------------------------------------------------------------------------------|

Outro:

e|---------------------------------------------------------------------------|
B|---------------------------------------------------------------------------|
G|---------------------------------------------------------------------------|
D|---------------------------------------------------------------------------|
A|-------------------------5-------------------------------------------------|
E|--7----------7-------------------------------------------------------------|


************************************

| /   slide up
| \   slide down
| h   hammer-on
| p   pull-off
| ~   vibrato
| +   harmonic
| x   Mute note
| b   Bend
| pb  Pre-bend
| br  Bend release
| pbr Pre-bend release
| brb Bend release bend

************************************
Добавлено: 13.07.2015
Другие материалы по этой песне:
  • Аккорды и текст

Страница создана 13.07.2015
http://primanota.ru/life-without-buildings/new-town-chords.htm
Привет, Гость.
Предлагаем пройти революционный курс по гитаре.
Подарок от PrimaNota.Ru, забирай!