PrimaNota.ru - самый крупный в мире бесплатный архив песенных текстов, аккордов, табулатур и нот


Life Of Agony - Other Side Of The River - аккорды и текст, таба, видео

Регистрация Запомнить меня
Войти через:  Facebook Google Twitter Vk Yandex Mail.ru

Life Of Agony - Other Side Of The River - аккорды и текст, таба, видео

Печатать
Просмотров: 118
Авторы: Alan Robert, Joey Zampella

Other Side Of The River
Life Of Agony
		   THE OTHER SIDE OF THE RIVER BY LIFE OF AGONY

E|-------------------------------------------------------
B|------------------------------------------------------
G|-------------------------------------------------------
D|-----------------------------------------------------3
A|0-0-3-3-3-0-0-0-0-0-0-3-3-3-0-0-0-0-0-0-3-3-3-0-0-0-0-0-0-3---3   xxx
D|0-0-3-3-3-0-0-0-0-0-0-3-3-3-0-0-0-0-0-0-3-3-3-0-0-0-0-0-0-3-----3 xxx

E|-------------------------------------------------------
B|------------------------------------------------------
G|-------------------------------------------------------
D|-----------------------------------------------------
A|3xx3xx3xx-------3xx33----------3xx3xx3xx-------1xx11
D|3xx3xx3xx-------1xx11----------3xx3xx3xx-------1xx11


E|-------------------------------------------------------
B|------------------------------------------------------
G|-------------------------------------------------------
D|-----------------------------------------------------
A|3--------3
D|3--------1

E|-------------------------------------------------------
B|------------------------------------------------------
G|-------------------------------------------------------
D|-----------------------------------------------------
A|3xx3xxxxx3xx3xx3xxxxxx3xx3xx3xxxxx3xx3xx3xxx33
D|3xx3xxxxx3xx1xx1xxxxxx1xx3xx3xxxxx3xx1xx1xxx11

E|-------------------------------------------------------
B|------------------------------------------------------
G|-------------------------------------------------------
D|-----------------------------------------------------
A|xx1xxxxxx1xx1xxxxxx1xx1xxxxxx1xx1xxxxxx1
D|xx1xxxxxx1xx1xxxxxx1xx1xxxxxx1xx1xxxxxx1

E|-------------------------------------------------------
B|------------------------------------------------------
G|-------------------------------------------------------
D|-----------------------------------------------------
A|xx0xxxxxx0xx0xxxxxx0xx0xxxxxx0xx0xxxxxx0
D|xx0xxxxxx0xx0xxxxxx0xx0xxxxxx0xx0xxxxxx0

E|---------------------------------------------------------------------
B|-------------------------------------------------------------------------
G|---------------------------------------------------------------------------
D|----------------------------------------------------------------------------

A|xx0xxxxxx565xxxxxx5565xxxxxxxxx565xxxxxx5565
D|xx0xxxxxx-----xxxxxxx------xxxxxxxxx-----xxxxxx-------

E|-------------------------------------------------------
B|------------------------------------------------------
G|3-3-4-3-4-3---3-4-3-4-3-11-------------------
D|-----------4------------------------10-11----------
A|-------------------------------------------------------
D|---------------------------------------------------

E|-------------------------------------------------------
B|------------------------------------------------------
G|------------------------------------------------------
D|-------------------------------------------------------
A|3-3-3-3-3-3-3-3-3-3-3-3-3-3-3-3-3-3-3-3-3-3-3-3-3-3-3-3-3-3-3-3
D|3-3-3-3-3-3-3-3-3-3-3-3-3-3-3-3-1-1-1-1-1-1-1-1-1-1-1-1-1-1-1-1

order:
riff1  3x
riff2  1x
riff3     1x
riff4  2x
riff5  1x
riff6   1x
riff7    1x
solo    1x
riff2     1x
riff3      1x
ending   4x

tabbed by tom c     
Добавлено: 25.11.2013
Другие материалы по этой песне:
  • Аккорды и текст

Страница создана 30.03.2012
http://primanota.ru/life-of-agony/other-side-of-the-river-chords.htm
Привет, Гость.
Предлагаем пройти революционный курс по гитаре.
Подарок от PrimaNota.Ru, забирай!