PrimaNota.ru - самый крупный в мире бесплатный архив песенных текстов, аккордов, табулатур и нот


Life Of Agony - Method Of Groove - аккорды и текст, таба, видео

Регистрация Запомнить меня
Войти через:  Facebook Google Twitter Vk Yandex Mail.ru

Life Of Agony - Method Of Groove - аккорды и текст, таба, видео

Печатать
Просмотров: 153
Авторы музыки: Alan Robert
Авторы текста: Alan Robert
Method Of Groove
Life Of Agony
		   Method of groove
Life of agony
from: river runs red


E |--------------------------------------------------------------|
B |--------------------------------------------------------------|
G |--------------------------------------------------------------|
D |--------------------------------------------------------------| riff 1
A |--------------------------------------------------------------|
D |------O-O--12-11--------O-11-11-11-12-------------------------|


E |--------------------------------------------------------------|
B |--------------------------------------------------------------|
G |--------------------------------------------------------------|
D |--12--12---------12-----12-12-12----8-8--------8---8-8-8------| riff 2
A |--12--12---------12-----12-12-12----8-8--------8---8-8-8------|
D |--12--12--O-O-O--12--O--12-12-12----8-8--O-O-O-8-O-8-8-8------|


E |--------------------------------------------------------------|
B |--------------------------------------------------------------|
G |--------------------------------------------------------------|
D |-12-12-12-12---8-8-8-8---13-13-13-13----5-5-5-5---------------| riff 3
A |-12-12-12-12---8-8-8-8---13-13-13-13----5-5-5-5---------------|
D |-12-12-12-12---8-8-8-8---13-13-13-13----5-5-5-5---------------|


E |--------------------------------------------------------------|
B |--------------------------------------------------------------|
G |--------------------------------------------------------------|
D |-5--8--1O-----------------------------------------------------| RIFF 4
A |-5--8--1O-----------------------------------------------------|
D |-5--8--1O-----------------------------------------------------|


E |--------------------------------------------------------------|
B |--------------------------------------------------------------|
G |--------------------------------------------------------------|
D |--1O--12-12-12-11-12--9--8-8-8-9-1O---------------------------| RIFF 5
A |--1O--12-12-12-11-12--9--8-8-8-9-1O---------------------------|
D |--10--12-12-12-11-12--9--8-8-8-9-1O---------------------------|

I'M NOT SURE ABOUT RIFF 4&5 BUT IT'S SOMETHING

lyrics
riff 1
riff 2
We've got the method of groove that grabbed your attention
Now that you're aware we're gonna give you the message
My father taught me many things
Living deaf, dumb and blind will get you nothing
G listen up and hear what I have to say
It's never too late to learn in this day and age
We'll point you in a new direction
Passed down to this generation

riff 3
If you've learned anything from me
It would be to hold on to your dreams
Learn from my mistakes
And it will take off some of the weight
He said, "You got your whole life to live,
And so much more to give
Never compromise and you will never live a lie."
He said, "Son, remember where you came from."  riff4

riff 1
riff 2
We never doubted ourselves for a minute
Oh they may criticize and compromise, but we were always in it
G come on down and see what this is all about
It's in our soul, on the road, wherever we may go
G wake up, nothing can stop us
We got the chaos so just let us
Provide the lines that make your mind spend the time
Think before you sink to the bottom


riff 3
If you've learned anything from me
It would be to hold on to your dreams
Learn from my mistakes
And it will take off some of the weight
He said, "You got your whole life to live,
And so much more to give
Never compromise and you will never live a lie."
He said, "Son, remember where you came from."
riff 5

He said, "Son, remember where you came from."

tabbed by: Chewy key ,Holland
if you have any comments or you know the right way to play this song
please let me know.
106111.3064@compuserve.com

see you 'friday'.     
Добавлено: 16.09.2013
Другие материалы по этой песне:

Страница создана 22.02.2012
http://primanota.ru/life-of-agony/method-of-groove-chords.htm
Привет, Гость.
Предлагаем пройти революционный курс по гитаре.
Подарок от PrimaNota.Ru, забирай!