PrimaNota.ru - самый крупный в мире бесплатный архив песенных текстов, аккордов, табулатур и нот


Life Of Agony - Love To Let You Down - текст песни, таба, бас-таба, видео

Регистрация Запомнить меня
Войти через:  Facebook Google Twitter Vk Yandex Mail.ru

Life Of Agony - Love To Let You Down - текст песни, таба, бас-таба, видео

Печатать
Просмотров: 166
Уроки эстрадного вокала в Санкт-Петербурге
Life of Agony - Love to let you down


I'm pretty sure this is RIGHT ON THE MONEY! Mwahahaha, okay, check it out for yourself.


Tuning: Drop D (D, A, D, G, B, e) Low to high


Legend:

~ = Vibrato


Intro:

e|---------------------------------------------------------------|
B|---------------------------------------------------------------|
G|---------------------------------------------------------------|
D|---------------------------------------------------------------| X2
A|--------------8-8-8-8-8-8-8-8-8-------------------------5------|
D|0-0-0-0-0-0-0-------------------2-2-2-2-2-2-2-2-3-3-0-3---3-0-3|


Verse:

e|--------------------------|          |------------------------------|
B|--------------------------|          |------------------------------|
G|--------------------------|          |------------------------------|
D|0-0--3-3-3-3--5--5-5-5-5-5| X3, Then |10--10--10-10--3--3-3--3-3-3-3| Repeat verse twice.
A|0-0-----------------------|          |10--10--10-10--3--3-3--3-3-3-3|
D|0-0-----------------------|          |10--10--10-10--3--3-3--3-3-3-3|


Chorus:

e|-----------------------------------------|
B|-----------------------------------------|
G|-----------------------------------------|
D|0--0--10-10-10-10--3-3--3---10-10--10-3-0| X4, on fourth time, don't play the last 0s.
A|0--0--10-10-10-10--3-3--3---10-10--10-3-0|
D|0--0--10-10-10-10--3-3--3---10-10--10-3-0|



e|---------------------------------------------------------------|
B|---------------------------------------------------------------|
G|---------------------------------------------------------------|
D|---------------------------------------------------------------| X2
A|--------------8-8-8-8-8-8-8-8-8-------------------------5------|
D|0-0-0-0-0-0-0-------------------2-2-2-2-2-2-2-2-3-3-0-3---3-0-3|


e|--------------------------|          |------------------------------|
B|--------------------------|          |------------------------------|
G|--------------------------|          |------------------------------|
D|0-0--3-3-3-3--5--5-5-5-5-5| X3, Then |10--10--10-10--3--3-3--3-3-3-3| Repeat verse twice.
A|0-0-----------------------|          |10--10--10-10--3--3-3--3-3-3-3|
D|0-0-----------------------|          |10--10--10-10--3--3-3--3-3-3-3|


e|-----------------------------------------|
B|-----------------------------------------|
G|-----------------------------------------|
D|0--0--10-10-10-10--3-3--3---10-10--10-3-0| X4, on fourth time, don't play the last 0s.
A|0--0--10-10-10-10--3-3--3---10-10--10-3-0|
D|0--0--10-10-10-10--3-3--3---10-10--10-3-0|


Bridge:

e|-----------------------------|
B|-----------------------------|
G|-----------------------------|
D|3--------0--------10--------8| X2
A|3--------0--------10--------8|
D|3--------0--------10--------8|


e|------------------------------------------------------|
B|------------------------------------------------------|
G|------------------------------------------------------|
D|------------------------------------------------------|
A|------------------------------------------------------|
D|2-2-2--2-2-2--2-2-2--2-2-2--2-2-2--2-2-2--2-2-2--2-2-2|


e|-----------------------------|    |--------------------------|
B|-----------------------------|    |--------------------------|
G|-----------------------------|    |--------------------------|
D|-----------------------------| X3 |--------------------------| Repeat these two bars twice.
A|----------------------5------|    |--------------------------|
D|2-2-2--2-2-2--2-3-0-3---3-0-3|    |2-2-2--2-2-2--2-2-2--2-2-2|


Two guitars now.


Guitar 1:

e|------------|          |------------------------------------------|
B|------------|          |------------------------------------------|
G|------------|          |------------------------------------------|
D|------------| X3, Then |10--10---3--3-----------------------------|
A|------------|          |10--10---3--3-----------------------------|
D|2-2-2--2-2-2|          |10--10---3--3---2-2-2--2-2-2--2-2-2--2-2-2|

Guitar 2:

 |Tremolo pick these---------|
e|12x8-13x8-12x8-13x8-5x8-7x8----------------|
B|----------------------------15b17r15-17b18~|
G|-------------------------------------------|
D|-------------------------------------------|
A|-------------------------------------------|
D|-------------------------------------------|


e|-----------------------------------------|
B|-----------------------------------------|
G|-----------------------------------------|
D|0--0--10-10-10-10--3-3--3---10-10--10-3-0| X4, on fourth time, don't play the last 0s.
A|0--0--10-10-10-10--3-3--3---10-10--10-3-0|
D|0--0--10-10-10-10--3-3--3---10-10--10-3-0|

Outro:

e|---------------------------------------------------------------------|
B|---------------------------------------------------------------------|
G|---------------------------------------------------------------------|
D|0--0--10-10-10-10--8-8--8---10-10--10-3-0---0--0--10-10-10-10--8-8--8| Let last note ring.
A|0--0--10-10-10-10--8-8--8---10-10--10-3-0---0--0--10-10-10-10--8-8--8|
D|0--0--10-10-10-10--8-8--8---10-10--10-3-0---0--0--10-10-10-10--8-8--8|
Добавлено: 03.04.2012
Другие материалы по этой песне:

Страница создана 03.04.2012
http://primanota.ru/life-of-agony/love-to-let-you-down-chords.htm
Привет, Гость.
Предлагаем пройти революционный курс по гитаре.
Подарок от PrimaNota.Ru, забирай!