PrimaNota.ru - самый крупный в мире бесплатный архив песенных текстов, аккордов, табулатур и нот


Life Of Agony - Let - аккорды и текст, видео

Регистрация Запомнить меня
Войти через:  Facebook Google Twitter Vk Yandex Mail.ru

Life Of Agony - Let - аккорды и текст, видео

Печатать
Просмотров: 86
Let
Life Of Agony
Tune The Guitar 1 step down

Notation Legend:

/ : pick slide
x : palm muted chord

Intro:		---------------------------
---------------------------
---------------------------
--10-10-10-10-10-10-10-10--
--10-10-10-10-10-10-10-10--
---8--8--8--8--8--8--8--8--

Riff 1:		-----------------------------------------------------------------
-----------------------------------------------------------------
-----------------------------------------------------------------
-10-10-10-10-10-10-10-10-10-10-10-10-10-10-10-10-7-7-7-7-7-7-7-7-
-10-10-10-10-10-10-10-10-10-10-10-10-10-10-10-10-7-7-7-7-7-7-7-7-
--8--8--8--8--8--8--8--8--8--8--8--8--8--8--8--8-5-5-5-5-5-5-5-5-

[------------------------------------------------------------------
------------------------------------------------------------------
------------------------------------------------------------------
-7-7-7-7-7-7-7-7-8-8-8-8-8-8-8-8-8-8-8-8-8-8-8-8-5-5-5-5-5-5-5-5--
-7-7-7-7-7-7-7-7-8-8-8-8-8-8-8-8-8-8-8-8-8-8-8-8-5-5-5-5-5-5-5-5--
-5-5-5-5-5-5-5-5-6-6-6-6-6-6-6-6-6-6-6-6-6-6-6-6-3-3-3-3-3-3-3-3--

------------------
------------------
------------------
-5-5-5-5-5-5-5-5--
-5-5-5-5-5-5-5-5--
-3-3-3-3-3-3-3-3--]

Fill 1              Fill 2
-----------------          --------------------------
-----------------          --------------------------
-----------------          --------------------------
-3------------/--          --------------------------
-3------------/--          --------------------------
-1------------/--          -8--5---6---3---1--------

Riff 2:		-------------------------------------------------------------
-------------------------------------------------------------
-------------------------------------------------------------
--5-5-5-5-5-------2-2-2-2-2-------3-3-3-3-3-------3-3-3-3-3--
--5-5-5-5-5-------2-2-2-2-2-------3-3-3-3-3-------3-3-3-3-3--
--3-3-3-3-3-------0-0-0-0-0-------1-1-1-1-1-------1-1-1-1-1--

End:		------------
------------
------------
--3---------
--3---------
--1---------

Now the song goes in this order:
Intro  } 8x
Riff 1 } 2x
Fill 1 } 1x
Riff 1 } 2x
Fill 1 } 1x
Riff 1 } 2x
Fill 1 } 1x
Riff 1 } 2x
Fill 2 } 1x
Riff 2 } 4x
Riff 1 } 4x (first 2 times with solo, then just normal)
End    } 1x
Добавлено: 20.12.2013
Вам также может быть интересно:
Другие материалы по этой песне:
  • Аккорды и текст

Страница создана 20.12.2013
http://primanota.ru/life-of-agony/let-chords.htm
Привет, Гость.
Предлагаем пройти революционный курс по гитаре.
Подарок от PrimaNota.Ru, забирай!