PrimaNota.ru - самый крупный в мире бесплатный архив песенных текстов, аккордов, табулатур и нот


Life Of Agony - Here I Am Here I Stay - таба, видео

Регистрация Запомнить меня
Войти через:  Facebook Google Twitter Vk Yandex Mail.ru

Life Of Agony - Here I Am Here I Stay - таба, видео

Печатать
Просмотров: 71
Уроки эстрадного вокала в Санкт-Петербурге
-------------------------------------------------------------------------------
                             Here I Am Here I Stay - Life Of Agony
-------------------------------------------------------------------------------
Tabbed by:
E-mail:

Tuning: standard

e|----------------------------|
B|----------------------------|
G|--------------------0-------|
D|------------0-----0---0-----|
A|---2------2-----4-------4---|
E|-0---0--3-----5-------------|

e|----------------------|
B|----------------------|
G|----------------------|
D|-5--------------------|
A|-3--5-2--2-2----------|
E|----3-0--0-0---(+12)--|

e|-----------------------------------|
B|-----------------------------------|
G|-----------------------------------|
D|-5---------------------------------|
A|-3--5-2--2-2-2-2--2-2-2-2-2-2-2-2--|
E|----3-0--0-0-0-0--0-0-0-0-0-0-0-0--|

e|-------------------------|
B|-------------------------|
G|-------------------------|
D|-5-----------5-7---10-9--|
A|-3--5-2------3-5----9-7--|
E|----3-0------------------|

e|-----------------------------------------------------|
B|-----------------------------------------------------|
G|-----------------------------------------------------|
D|---------------------------5-5-5-5-5-----------------|
A|-2-2-2-2-2----------5-4-5--3-3-3-3-3--3-3-3-3-5-4-5--|
E|-0-0-0-0-0--0-0-0-0-3-2-3---------------------3-2-2--|

e|-----------------------------|
B|-----------------------------|
G|-----------------------------|
D|-----------------------------|
A|-2-2-2--5-5-5--7-7-7--7-7-7--|
E|-0-0-0--3-3-3--5-5-5--5-5-5--|

e|----------------------------------------------------------------|
B|----------------------------------------------------------------|
G|----------------------------------------------------------------|
D|---------9-----7-----4-4-4-4-5-----------9-----7-----4-4-4-4-4--|
A|---------7-----5-----2-2-2-2-3-----------7-----5-----2-2-2-2-2--|
E|-0-0-0-0---0-0---0-0-------------0-0-0-0---0-0---0-0------------|

e|-----------------------------------------------|
B|-----------------------------------------------|
G|-----------------------------------------------|
D|-9----7----4---2-4-5----9----7----4----5-------|
A|-7----5----2---0-2-3----7----5----2----3--5-4--|
E|------------------------------------------3-2--|


************************************

| /   slide up
| \   slide down
| h   hammer-on
| p   pull-off
| ~   vibrato
| +   harmonic
| x   Mute note
| b   Bend
| pb  Pre-bend
| br  Bend release
| pbr Pre-bend release
| brb Bend release bend

************************************
Добавлено: 18.04.2016
Другие материалы по этой песне:
  • Аккорды и текст

Страница создана 18.04.2016
http://primanota.ru/life-of-agony/here-i-am-here-i-stay-chords.htm
Привет, Гость.
Предлагаем пройти революционный курс по гитаре.
Подарок от PrimaNota.Ru, забирай!