PrimaNota.ru - самый крупный в мире бесплатный архив песенных текстов, аккордов, табулатур и нот


Life Of Agony - Angry Tree By Life - бас-таба, видео

Регистрация Запомнить меня
Войти через:  Facebook Google Twitter Vk Yandex Mail.ru

Life Of Agony - Angry Tree By Life - бас-таба, видео

Печатать
Просмотров: 95
Tuning: 1/2 step down
(Eb Ab Db Gb)


Intro/ 1st Verse

Gb--6h8-6--4-6/8-4----------------------|
Db------------------6--4--2-4-6-8-9--6--|
Ab--------------------------------------|
Eb--------------------------------------|

Gb--6h8-6--4-6/8-4-------------------|
Db------------------6--4--2-4-6-8----|
Ab-----------------------------------|
Eb-----------------------------------|

Bridge ("Rusty Breeze..")

Gb-------------------------------------|
Db--9----------------------------------|
Ab------4-6--7--9--\\4-4-7-6-4-6-2-----|
Eb-------------------------------------|

Gb----------------------------------------|
Db----------------------------------------|
Ab---2-6--7--9--\\4-4-7-6-4-6-2-----------|   X3
Eb----------------------------------------|

Chorus ("and everybody is...")

Gb-------------------------------------------|
Db------------4/6-4h6----4-4--2--------------|
Ab--2---2------------------------------------|  X4
Eb---------4----------2----------0--0--0--0--|

Verse 2

Gb----------------------------------|
Db----------------------------------|
Ab--2---2-6-6h7--9--\\4-4-7-6-4-6---| X4
Eb----------------------------------|

Bridge 2

Gb----------------------------------|
Db------1---------------------------|
Ab--2-2---2-----6-------4---------1-| X4
Eb----------4-4---4-2-2---2-0-2-4---|

Heavy Part

Gb-----------------------------|
Db-------6-4-------------------|
Ab-----------6-2-----4h6-------| X4, end with
Eb--4--4-----------------------|

Gb--------------|
Db--------------|
Ab--------------|
Eb--2-----0-----|

Solo

Gb--------------------------------------------|
Db-------------4/6-4h6----4-4--2--------------|
Ab--2---2-------------------------------------|  X2
Eb---------4-----------2----------0--0--0--0--|

Gb----------------------------------|
Db------1---------------------------|
Ab--2-2---2-----6-------4---------1-| X2
Eb----------4-4---4-2-2---2-0-2-4---|

Last Chorus

Gb--------------------------------------------|
Db-------------4/6-4h6----4-4--2--------------|
Ab--2---2-------------------------------------|  X4, end with
Eb---------4-----------2----------0--0--0--0--|

Gb------|
Db------|
Ab--2---|
Eb------|

Note: There are nearly no breaks, every tone will
ring untill the next one is played so I didn't tab
the "let-ring-sign" (~)!
This is my first tab so I hope it's readable...
Добавлено: 28.06.2012
Другие материалы по этой песне:
  • Аккорды и текст

Страница создана 28.06.2012
http://primanota.ru/life-of-agony/angry-tree-by-life-chords.htm
Привет, Гость.
Предлагаем пройти революционный курс по гитаре.
Подарок от PrimaNota.Ru, забирай!