PrimaNota.ru - самый крупный в мире бесплатный архив песенных текстов, аккордов, табулатур и нот


Life Long Tragedy - Make Or Break - таба, видео

Регистрация Запомнить меня
Войти через:  Facebook Google Twitter Vk Yandex Mail.ru

Life Long Tragedy - Make Or Break - таба, видео

Печатать
Просмотров: 96
Band: Life Long Tragedy
Song: Make Or Break
Album: Destined For Anything
Tabbed By: Nicholas Wong 
E-mail: breakthesilencewakethedead@gmail.com (msn)

STANDARD TUNING

intro (has your heart ever skipped a beat)
|----------------------------------------------------------------------------------------|
|----------------------------------------------------------------------------------------|
|-7------------------7---5------------------5---3-----------------------------5----------| x2
|-7-7777777777777777-7-7-5-5555555555555555-5-5-3-3333333333333333-3----------5-55555555-|
|-5-5555555555555555-5-5-3-3333333333333333-3-3-1-1111111111111111-3-33333333-3-33333333-|
|------------------------------------------------------------------1-11111111------------|
    ................   .   ................   .   ................   ........   ........
(palm mutes should be 16th notes and played in up and down strokes)

repeat intro (we keep on fighting), but in a different speed for the palm mutes
you'll know what i mean by listening to the song

verse 1 
|-----------------------------------|
|-----------------------------------|
|-77-7-77755-5-555-33-3-33333-3-333-|
|-77-7-77755-5-555-33-3-33333-3-333-| x6
|-55-5-55533-3-333-11-1-11111-1-111-|
|-----------------------------------|

verse 2 (this world is what you make it)
|--------------------------------------------------------|
|--------------------------------------------------------|
|-7-------------3----------33-5-----------7------5-------| x2
|-7-77777777-32-3-33333333-33-5-555555555-7-7777-5-55-32-|
|-5-55555555-32-1-11111111-11-3-333333333-5-5555-3-33-32-|
|------------10---------------------------------------10-|
    ........      ........      .........   ....   ..

verse 3 (i'll live my life for me!)
|--------------------------------------------------------|
|--------------------------------------------------------|
|-7-77777777----3-33333333-33-5-555555555-7-7777-5-55----| x2
|-7-77777777-32-3-33333333-33-5-555555555-7-7777-5-55-32-|
|-5-55555555-32-1-11111111-11-3-333333333-5-5555-3-33-32-|
|------------10---------------------------------------10-|
   
fill
|---------------|
|---------------|
|-7-----5-----3-|
|-7-----5-----3-|
|-5-----3-----1-|
|---------------|

verse 4 (and we're still fighting)
|------------------------|
|------------------------|
|-7----------3--5--------|
|-7-77777777-33-55-3--2--| x8
|-5-55555555-11-33-33-2--|
|------------------11-0--|
    ........  .  .  .

repeat intro x2
repeat fill

ending chord
|---|
|---|
|-7-|
|-7-|
|-5-|
|---|

www.myspace.com/lifelongtragedy

they were signed to deathwish inc. which is the same label as converge and many others
so i dont think they should be under misc. unsigned bands.

pls rate and comment! thanks.

LEGEND
. - palm mute

Добавлено: 13.07.2012
Вам также может быть интересно:
Другие материалы по этой песне:
  • Аккорды и текст

Страница создана 13.07.2012
http://primanota.ru/life-long-tragedy/make-or-break-chords.htm
Привет, Гость.
Предлагаем пройти революционный курс по гитаре.
Подарок от PrimaNota.Ru, забирай!