PrimaNota.ru - самый крупный в мире бесплатный архив песенных текстов, аккордов, табулатур и нот


Life In Your Way - Threads Of Sincerity - текст песни, таба, видео

Регистрация Запомнить меня
Войти через:  Facebook Google Twitter Vk Yandex Mail.ru

Life In Your Way - Threads Of Sincerity - текст песни, таба, видео

Печатать
Просмотров: 71
Уроки эстрадного вокала в Санкт-Петербурге
Tuning is Drop C



Title: Threads of sincerity
Artist: Life in your way
Album: Waking Giants
Words: Life in your way
Guitar 1

Legend
L - tied note
x - dead note
h - hammer on/pull off
b - bend
s - slide
~ - vibrato
g - ghost note
> - accentuated note
t - trill
M - palm mute
. - staccato
P - popping (bass)
S - slapping (bass)
+ - tapping
W - wide vibrato
< - fade in
w - whammy bar
= - tremolo picking
v - brush up
^ - brush down
V - pick stroke up
n - pick stroke down


D |----------------------------|----------------------------|
A |----------------------------|-----------0-----1-----3----|
F |----------------------------|--2~----------------2-------|
C |----------------------------|----------------------------|
G |-----5-----7-----5h-0-------|----------------------------|
C |--0M-5--0M-7--0M-5h-0--0M---|----------------------------|


--------1L-1L-1--0L-0L-0----|--------3L-3L-3--1L-1-------|
-----------3L-3-----1L-1----|--0L-0-----5L-5-----3L-3----|
--2--2--------2--------2L---|--2--2--------2--------2----|
----------------------------|----------------------------|
----------------------------|----------------------------|
----------------------------|----------------------------|


--0L-0----------------------|----------------------------|
-----1L-1--3-----1----------|-----------------------1----|
--------2-----2-----2--2----|-----------0-----2----------|
----------------------------|--3L-------3--------3-------|
----------------------------|----------------------------|
----------------------------|----------------------------|


----------------------------|----------------------------|
--------3--------1--0-------|-----------------------1L---|
--4--------5----------------|-----------0-----2----------|
-----3--------3--------3----|--3-----------------3-------|
----------------------------|----------------------------|
----------------------------|----------------------------|


----------------------------||---------------------------|
--1L-1L-1--------------3----||----------0-----1-----3----|
-----------2h-0--5h-4-------||o2~----------------2-------|
----------------------------||o--------------------------|
----------------------------||---------------------------|
----------------------------||---------------------------|


--------1L-1L-1--0L-0L-0----|--------3L-3L-3--1L-1-------|
-----------3L-3-----1L-1----|--0L-0-----5L-5-----3L-3----|
--2--2--------2--------2L---|--2--2--------2--------2----|
----------------------------|----------------------------|
----------------------------|----------------------------|
----------------------------|----------------------------|


--0L-0----------------------|----------------------------|
-----1L-1--3-----1----------|-----------------------1----|
--------2-----2-----2--2----|-----------0-----2----------|
----------------------------|--3L-------3--------3-------|
----------------------------|----------------------------|
----------------------------|----------------------------|


----------------------------|----------------------------|
--------3--------1--0-------|-----------------------1L---|
--4--------5----------------|-----------0-----2----------|
-----3--------3--------3----|--3-----------------3-------|
----------------------------|----------------------------|
----------------------------|----------------------------|


---------------------------||-------|-------|-------|-------|-------|-------|
--1L-1L-1--------------3---||-------|-------|-------|-------|-------|-------|
-----------2h-0--5h-4-----o||-------|-------|-------|-------|--5L---|--5----|
--------------------------o||--0L---|--0----|--3L---|--3----|--5L---|--5----|
---------------------------||--0L---|--0----|--3L---|--3----|--3L---|--3----|
---------------------------||--0L---|--0----|--3L---|--3----|-------|-------|


-------|-------|----------------------------|----------------------------|
-------|-------|----------------------------|----------------------------|
-------|-------|----------------------------|----------------------------|
--5L---|--5----|----------------------------|----------------------------|
--5L---|--5----|--3-----3M-3M-3M-3M-3M-3M---|--3--3--3--3--3--3--3--3----|
--5L---|--5----|--3-----3M-3M-3M-3M-3M-3M---|--3M-3M-3M-3M-3M-3M-3M-3M---|


----------------------------|----------------------------|
----------------------------|----------------------------|
----------------------------|----------------------------|
----------------------------|----------------------------|
--5-----5--5--5--5--5--5----|--5--5--5--5--5--5--5--5----|
--5-----5M-5M-5M-5M-5M-5M---|--5M-5M-5M-5M-5M-5M-5M-5M---|


----------------------------|----------------------------|-------|-------|
----------------------------|----------------------------|-------|-------|
----------------------------|----------------------------|-------|-------|
----------------------------|----------------------------|-------|-------|
--7-----7--7--7--7--7--7----|--7M-7M-7--7--7--7--7--7----|-------|-------|
--7-----7M-7M-7M-7M-7M-7M---|--7M-7M-7M-7M-7M-7M-7M-7M---|-------|-------|


----------------------------------------------------------------------------|
----------------------------------------------------------------------------|
----------------------------------------------------------------------------|
--10----------------------------------10----------------------10------------|
--7-----------------------------------7-----------------------7-------------|
--7-----------------------------------7-----------7M-7M-7M-7M-7-------------|


----------------------|
----------------------|
----------------------|
--10-------9--9--9----|
--7--------10-10-10---|
--7--------12-12-12---|


----------------------------------------------------------------------------|
----------------------------------------------------------------------------|
----------------------------------------------------------------------------|
--10----------------------------------10----------------------10------------|
--7-----------------------------------7-----------------------7-------------|
--7-----------------------------------7-----------7M-7M-7M-7M-7-------------|


----------------------|----------------|----------------||
----------------------|----------------|----------------||
----------------------|----------------|----------------||
--10-------9--9--9----|--10-10-9--9----|--5-------------||
--7--------10-10-10---|--7--7--10-10---|--3-------------||
--7--------12-12-12---|--7--7--12-12---|--3-------------||


----------8--8--8--8--8--8--8--8--8----|
----------5--5--5--5--5--5--5--5--5----|
o---------5--5--5--5--5--5--5--5--5----|
o3--------7--7--7--7--7--7--7--7--7----|
-3-------------------------------------|
-3-------------------------------------|


-----------7--7--7--7--7--7--7--7--7----|
-----------8--8--8--8--8--8--8--8--8----|
-----------4--4--4--4--4--4--4--4--4----|
--5-------------------------------------|
--5-------------------------------------|
--5-------------------------------------|


----------------------------------------|
----------------------------------------|
-----------5h-2-----0h-2----------------|
----------------------------------------|
--7--7--7--------7--------7M-7M-5h-3----|
--7M-7M-7M-------7M-------7M-7M---------|


----------------------------------------|
----------------------------------------|
--------------------------5-----5L-5----|
-----------10h7-----5h-7-----7----------|
--7M-7M-7M-------7M---------------------|
--7M-7M-7M-------7M---------------------|


-----------8--8--8--8--8--8--8--8--8----|
-----------5--5--5--5--5--5--5--5--5----|
-----------5--5--5--5--5--5--5--5--5----|
--3--------7--7--7--7--7--7--7--7--7----|
--3-------------------------------------|
--3-------------------------------------|


-----------7--7--7--7--7--7--7--7--7----|
-----------8--8--8--8--8--8--8--8--8----|
-----------4--4--4--4--4--4--4--4--4----|
--5-------------------------------------|
--5-------------------------------------|
--5-------------------------------------|


----------------------------------------|
----------------------------------------|
----------------------------------------|
-----------10h7-----5h-7----------------|
--7--7--7--------7--------7M-7M-5h-3----|
--7M-7M-7M-------7M-------7M-7M---------|


---------------------------------------||--------1--------1----|
---------------------------------------||-----1L-1-----1L-1----|
--------------------------5-----5L-5--o||--2L-2-----3L-3-------|
-----------10h7-----5h-7-----7--------o||----------------------|
--7M-7M-7M-------7M--------------------||----------------------|
--7M-7M-7M-------7M--------------------||----------------------|


--1g----1g-1g-1g-1g-1g-1g---|--1g-1g-1g-1g-1g-1g-1g------|
--3g----3g-3g-3g-3g-3g-3g---|--3g-3g-3g-3g-3g-3g-3g-5L---|
--3-----3--3--3--3--3--3----|--3--3--3--3--3--3--3--7L---|
--3-----3--3--3--3--3--3----|--3--3--3--3--3--3--3--7L---|
--1-----1--1--1--1--1--1----|--1--1--1--1--1--1--1--5L---|
----------------------------|----------------------------|


----------------------------|-----------------------1L---|
--5g-5g-5g-5g-5g-5g-5g-5g---|--5g-5g-5g-5g-5g-5g-5g-3L---|
--7--7--7--7--7--7--7--7----|--7--7--7--7--7--7--7--3L---|
--7--7--7--7--7--7--7--7----|--7--7--7--7--7--7--7--3L---|
--5--5--5--5--5--5--5--5----|--5--5--5--5--5--5--5--1L---|
----------------------------|----------------------------|


--1g-1g-1g-1g-1g-1g-1g-1g---|--1g-1g-1g-1g-1g-1g-1g------|
--3g-3g-3g-3g-3g-3g-3g-3g---|--3g-3g-3g-3g-3g-3g-3g-5L---|
--3--3--3--3--3--3--3--3----|--3--3--3--3--3--3--3--7L---|
--3--3--3--3--3--3--3--3----|--3--3--3--3--3--3--3--7L---|
--1--1--1--1--1--1--1--1----|--1--1--1--1--1--1--1--5L---|
----------------------------|----------------------------|


--------------------0L-0----|--0--0L-0--0--0--0--0--0----|
--5--5L-5--5--5--5--1L-1----|--1--1L-1--1--1--1--1--1----|
--7--7L-7--7--7--7--0L-0----|--0--0L-0--0--0--0--0--0----|
--7--7L-7--7--7--7--2L-2----|--2--2L-2--2--2--2--2--2----|
--5--5L-5--5--5--5--3L-3----|--3--3L-3--3--3--3--3--3----|
----------------------------|----------------------------|


--------1g----1g-1g-1g-1g---|--1g-1g-1g-1g-1g-1g-1g-1g---|
--------3g----3g-3g-3g-3g---|--3g-3g-3g-3g-3g-3g-3g-3g---|
--------3-----3--3--3--3----|--3--3--3--3--3--3--3--3----|
--------3-----3--3--3--3----|--3--3--3--3--3--3--3--3----|
--------1-----1--1--1--1----|--1--1--1--1--1--1--1--1----|
----------------------------|----------------------------|


----------------------------|----------------------------|
--5g-5g-5g-5g-5g-5g-5g-5g---|--5g-5g-5g-5g-5g-5g-5g-5g---|
--7--7--7--7--7--7--7--7----|--7--7--7--7--7--7--7--7----|
--7--7--7--7--7--7--7--7----|--7--7--7--7--7--7--7--7----|
--5--5--5--5--5--5--5--5----|--5--5--5--5--5--5--5--5----|
----------------------------|----------------------------|


--1L-1g-1g-1g-1g-1g-1g-1L---|--1g-1g-1g-1g-1g-1g-1g-1g---|
--3L-3g-3g-3g-3g-3g-3g-3L---|--3g-3g-3g-3g-3g-3g-3g-3g---|
--3L-3--3--3--3--3--3--3L---|--3--3--3--3--3--3--3--3----|
--3L-3--3--3--3--3--3--3L---|--3--3--3--3--3--3--3--3----|
--1L-1--1--1--1--1--1--1L---|--1--1--1--1--1--1--1--1----|
----------------------------|----------------------------|


-----------------------0L---|--0L-0--0--0--0--0--0--0----||
-----------------------1L---|--1L-1--1--1--1--1--1--1----||
--7L-7--7L-7--7--7--7--0L---|--0L-0--0--0--0--0--0--0----||
--7L-7--7L-7--7--7--7--2L---|--2L-2--2--2--2--2--2--2----||
--5L-5--5L-5--5--5--5--3L---|--3L-3--3--3--3--3--3--3----||
----------------------------|----------------------------||


-------5--5--5--5L-5L-5----|--5--5--5--5----------------|
-9b-9L-9L-9L-9L-9b-9b-9L---|--9L-9b-------6--6--6--6----|
o--------------------------|----------------------------|
o--------------------------|----------------------------|
---------------------------|----------------------------|
---------------------------|----------------------------|


--------5--5--5--5L-5L-5L---|--5--5L-5--5----|--------5--5--5--5L-5L-5----|
--9b-9L-9L-9L-9L-9b-9b-9b---|--9L-9b-9L-9b---|--9b-9L-9L-9L-9L-9b-9b-9L---|
----------------------------|----------------|----------------------------|
----------------------------|----------------|----------------------------|
----------------------------|----------------|----------------------------|
----------------------------|----------------|----------------------------|


--5--5--5--5----------------|--------10------|--10----8------||
--9L-9b-------6--6--6--6----|-----6L-6--6L---|--6--6-----6---||
----------------------------|--7L-7----------|--------------o||
----------------------------|----------------|--------------o||
----------------------------|----------------|---------------||
----------------------------|----------------|---------------||


--1g-1g-1g-1g-1g-1g-1g-1g---|--1g-1g-1g-1g-1g-1g-1g-1g---|
--3g-3g-3g-3g-3g-3g-3g-3g---|--3g-3g-3g-3g-3g-3g-3g-3g---|
--3--3--3--3--3--3--3--3----|--3--3--3--3--3--3--3--3----|
--3--3--3--3--3--3--3--3----|--3--3--3--3--3--3--3--3----|
--1--1--1--1--1--1--1--1----|--1--1--1--1--1--1--1--1----|
----------------------------|----------------------------|


----------------------------|----------------------------|
--6--6--6--6--6--6--6--6----|--6--6--6--6--6--6--6--6----|
--7--7--7--7--7--7--7--7----|--7--7--7--7--7--7--7--7----|
--7--7--7--7--7--7--7--7----|--7--7--7--7--7--7--7--7----|
--5--5--5--5--5--5--5--5----|--5--5--5--5--5--5--5--5----|
----------------------------|----------------------------|


--1g-1g-1g-1g-1g-1g-1g-1g---|--1g-1g-1g-1g-1g-1g-1g-1g---|
--3g-3g-3g-3g-3g-3g-3g-3g---|--3g-3g-3g-3g-3g-3g-3g-3g---|
--3--3--3--3--3--3--3--3----|--3--3--3--3--3--3--3--3----|
--3--3--3--3--3--3--3--3----|--3--3--3--3--3--3--3--3----|
--1--1--1--1--1--1--1--1----|--1--1--1--1--1--1--1--1----|
----------------------------|----------------------------|


----------------------------|----------------------------|
--6--6--6--6--6--6--6--6----|--1--1--1--1--1--1--1--1----|
--7--7--7--7--7--7--7--7----|--0--0--0--0--0--0--0--0----|
--7--7--7--7--7--7--7--7----|--2--2--2--2--2--2--2--2----|
--5--5--5--5--5--5--5--5----|--3--3--3--3--3--3--3--3----|
----------------------------|----------------------------|


----------------------------|-------|-------|-------|-------|-------|-------|
----------------------------|-------|-------|--10L--|--10---|-------|-------|
--------5--------7----------|--10L--|--10---|-------|-------|--9L---|--9----|
----------------------------|-------|-------|--7L---|--7----|-------|-------|
--------3--------5----------|--8L---|--8----|-------|-------|--7L---|--7----|
----------------------------|-------|-------|-------|-------|-------|-------|


-------|-------|-------|-------|-------|-------|-------|-------|-------|-------|
-------|-------|-------|-------|-------|-------|-------|-------|-------|-------|
--12L--|--12---|--10L--|--10---|--9L---|--9----|--5L---|--5----|--7L---|--7----|
-------|-------|-------|-------|-------|-------|--5L---|--5----|-------|-------|
--10L--|--10---|--8L---|--8----|--7L---|--7----|--3L---|--3----|--5L---|--5----|
-------|-------|-------|-------|-------|-------|-------|-------|-------|-------|


-------|-------|-------|-------|-------|-------|-------|-------|
-------|-------|-------|-------|-------|-------|-------|-------|
--10L--|--10---|--9L---|--9----|--5L---|--5----|--7L---|--7----|
-------|-------|-------|-------|--5L---|--5----|-------|-------|
--8L---|--8----|--7L---|--7----|--3L---|--3----|--5L---|--5----|
-------|-------|-------|-------|-------|-------|-------|-------|


----------------|----------------|----------------|----------------|
-----8-----6L---|--6-----8--6----|-----8-----6L---|--6-----8--6----|
--5L-5----------|-----5----------|--5L-5----------|-----5----------|
----------------|----------------|----------------|----------------|
----------------|----------------|----------------|----------------|
----------------|----------------|----------------|----------------|


----------------|--------3-------|----------------|----------------|
-----5-----3----|-----------3L---|--3--1-----0L---|--0--1--0--1----|
--5-------------|--5L-5----------|----------------|----------------|
----------------|----------------|----------------|----------------|
----------------|----------------|----------------|----------------|
----------------|----------------|----------------|----------------|


----------------|--7-----10-12---|--10-8--7--8----|--15-------15---|
--0--1--5--8----|-----8----------|----------------|-----12-13------|
----------------|----------------|----------------|----------------|
----------------|----------------|----------------|----------------|
----------------|----------------|----------------|----------------|
----------------|----------------|----------------|----------------|


--19----15------|-------|--10L--|--10~--|----------------|--7-----10-12---|
-----------13L--|--13~--|-------|-------|--0--1--5--8----|-----8----------|
----------------|-------|-------|-------|----------------|----------------|
----------------|-------|-------|-------|----------------|----------------|
----------------|-------|-------|-------|----------------|----------------|
----------------|-------|-------|-------|----------------|----------------|


--10-8--7--8----|--15-------15---|--19----15------|-------|--10L--|--10~--|
----------------|-----12-13------|-----------13L--|--13~--|-------|-------|
----------------|----------------|----------------|-------|-------|-------|
----------------|----------------|----------------|-------|-------|-------|
----------------|----------------|----------------|-------|-------|-------|
----------------|----------------|----------------|-------|-------|-------|


-------|-------|-------|-------|----------------|----------------|
-------|-------|-------|-------|--3--3--3--3----|--3--3--3--3----|
-------|-------|-------|-------|--5--5--5--5----|--5--5--5--5----|
-------|-------|-------|-------|--5--5--5--5----|--5--5--5--5----|
-------|-------|-------|-------|--3--3--3--3----|--3--3--3--3----|
-------|-------|-------|-------|----------------|----------------|


----------------|----------------|----------------|----------------|
----------------|----------------|----------------|----------------|
----------------|----------------|----------------|----------------|
--7g-7g-7g-7g---|--7g-7g-7g-7g---|--3--3--3--3----|--3--3--3--3----|
--5--5--5--5----|--5--5--5--5----|--3--3--3--3----|--3--3--3--3----|
--5--5--5--5----|--5--5--5--5----|--3--3--3--3----|--3--3--3--3----|


----------------|----------------|----------------|----------------|
----------------|----------------|--3--3--3--3----|--3--3--3--3----|
----------------|----------------|--5--5--5--5----|--5--5--5--5----|
--2--2--2--2----|--2--2--2--2----|--5--5--5--5----|--5--5--5--5----|
--2--2--2--2----|--2--2--2--2----|--3--3--3--3----|--3--3--3--3----|
--2--2--2--2----|--2--2--2--2----|----------------|----------------|


----------------|----------------|----------------|----------------|
----------------|----------------|----------------|----------------|
----------------|----------------|----------------|----------------|
--7g-7g-7g-7g---|--7g-7g-7g-7g---|--3--3--3--3----|--3--3--3--3----|
--5--5--5--5----|--5--5--5--5----|--3--3--3--3----|--3--3--3--3----|
--5--5--5--5----|--5--5--5--5----|--3--3--3--3----|--3--3--3--3----|


----------------|----------------|----------------|----------------|
----------------|----------------|--3--3--3--3----|--3--3--3--3----|
----------------|----------------|--5--5--5--5----|--5--5--5--5----|
--2--2--2--2----|--2--2--2--2----|--5--5--5--5----|--5--5--5--5----|
--2--2--2--2----|--2--2--2--2----|--3--3--3--3----|--3--3--3--3----|
--2--2--2--2----|--2--2--2--2----|----------------|----------------|


----------------|----------------||---------------|----------------|
----------------|----------------||-3--3--3--3----|--3--3--3--3----|
----------------|----------------||o5--5--5--5----|--5--5--5--5----|
--7g-7g-7g-7g---|--7g-7g-7g-7g---||o5--5--5--5----|--5--5--5--5----|
--5--5--5--5----|--5--5--5--5----||-3--3--3--3----|--3--3--3--3----|
--5--5--5--5----|--5--5--5--5----||---------------|----------------|


----------------|---------------|||---------------|----------------|
----------------|---------------|||-3--3--3--3----|--3--3--3--3----|
----------------|--------------o|||o5--5--5--5----|--5--5--5--5----|
--7g-7g-7g-7g---|--7g-7g-7g-7g-o|||o5--5--5--5----|--5--5--5--5----|
--5--5--5--5----|--5--5--5--5---|||-3--3--3--3----|--3--3--3--3----|
--5--5--5--5----|--5--5--5--5---|||---------------|----------------|


----------------|---------------|||---------------|----------------|
----------------|---------------|||-3--3--3--3----|--3--3--3--3----|
----------------|--------------o|||o5--5--5--5----|--5--5--5--5----|
--7g-7g-7g-7g---|--7g-7g-7g-7g-o|||o5--5--5--5----|--5--5--5--5----|
--5--5--5--5----|--5--5--5--5---|||-3--3--3--3----|--3--3--3--3----|
--5--5--5--5----|--5--5--5--5---|||---------------|----------------|


----------------|----------------|-------|-------||
----------------|----------------|-------|-------||
----------------|----------------|--0L---|--0----||
--7g-7g-7g-7g---|--7g-7g-7g-7g---|--2L---|--2----||
--5--5--5--5----|--5--5--5--5----|--3L---|--3----||
--5--5--5--5----|--5--5--5--5----|-------|-------||
__________________________________________________________
__________________________________________________________
__________________________________________________________________________________
__________________________________________________________________________________
Title: Threads of sincerity
Artist: Life in your way
Album: Waking Giants
Words: Life in your way
Guitar 2

Legend
L - tied note
x - dead note
h - hammer on/pull off
b - bend
s - slide
~ - vibrato
g - ghost note
> - accentuated note
t - trill
M - palm mute
. - staccato
P - popping (bass)
S - slapping (bass)
+ - tapping
W - wide vibrato
< - fade in
w - whammy bar
= - tremolo picking
v - brush up
^ - brush down
V - pick stroke up
n - pick stroke down


D |----------------------------|----------------------------|
A |----------------------------|----------------------------|
F |----------------------------|----------------------------|
C |----------------------------|----------------------------|
G |-----5-----7-----5h-0-------|--7--------------7M---------|
C |--0M-5--0M-7--0M-5h-0--0M---|--7--------7M-7M-7M-7M------|


----------------------------|----------------------------|
----------------------------|----------------------------|
----------------------------|----------------------------|
----------------------------|----------------------------|
-----------------7M---------|-----------------7M---------|
--------------7M-7M-7M------|--------------7M-7M-7M------|


----------------------------|----------------------------|
----------------------------|----------------------------|
----------------------------|----------------------------|
----------------------------|----------------------------|
-----------------7M-3M-7M---|--3--------------3M---------|
--------------0M-7--3M-7M---|--3--------3M-3M-3M-3M------|


----------------------------|-----------0--0--0--0-------|
----------------------------|-----------3--3--3--3-------|
----------------------------|-----------2--2--2--2-------|
----------------------------|----------------------------|
--------------0--3M-3M-3M---|--0-------------------------|
--------------0M-3M-3M-3M---|--0-------------------------|


-----------3--3--3--3-------||---------------------------|
-----------1--1--1--1-------||---------------------------|
-----------0--0--0--0-------||o--------------------------|
--5-------------------------||o--------------------------|
--5-------------------------||-7--------------7M---------|
--5-------------------------||-7--------7M-7M-7M-7M------|


----------------------------|----------------------------|
----------------------------|----------------------------|
----------------------------|----------------------------|
----------------------------|----------------------------|
-----------------7M---------|-----------------7M---------|
--------------7M-7M-7M------|--------------7M-7M-7M------|


----------------------------|----------------------------|
----------------------------|----------------------------|
----------------------------|----------------------------|
----------------------------|----------------------------|
-----------------7M-3M-7M---|--3--------------3M---------|
--------------0M-7--3M-7M---|--3--------3M-3M-3M-3M------|


----------------------------|-----------0--0--0--0-------|
----------------------------|-----------3--3--3--3-------|
----------------------------|-----------2--2--2--2-------|
----------------------------|----------------------------|
--------------0--3M-3M-3M---|--0-------------------------|
--------------0M-3M-3M-3M---|--0-------------------------|


-----------3--3--3--3------||--------------------8L-8L---|--8L----8~-8----|
-----------1--1--1--1------||--6--------8----------------|----------------|
-----------0--0--0--0-----o||----------------------------|----------------|
--5-----------------------o||----------------------------|----------------|
--5------------------------||----------------------------|----------------|
--5------------------------||----------------------------|----------------|


--------------------12L12L--|--12L---------12~---12s15---|
--5--------6----------------|----------------------------|
----------------------------|----------------------------|
----------------------------|----------------------------|
----------------------------|----------------------------|
----------------------------|----------------------------|


--15------------------------|----------------------------|
-----------12-------13L13L--|--13L---------13~---13-15---|
----------------------------|----------------------------|
----------------------------|----------------------------|
----------------------------|----------------------------|
----------------------------|----------------------------|


----------------------------|-------|--------3L-3----|-----3L-3--3----|
--15-------17L---------17L--|--17b--|-----1L-1-------|--1L-1----------|
----------------------------|-------|--2L-2-----2L---|--2-----2L-2----|
----------------------------|-------|----------------|----------------|
----------------------------|-------|----------------|----------------|
----------------------------|-------|----------------|----------------|


--------5L-5----|-----5L-5--5----|--7L-7-----7----|-----8L-8-------|
-----5L-5-------|--5L-5----------|-----8L-8-------|--8L-8--8L-8----|
--2L-2-----2L---|--2-----2L-2----|--------9L-9----|-----------9----|
----------------|----------------|----------------|----------------|
----------------|----------------|----------------|----------------|
----------------|----------------|----------------|----------------|


-----5--8-----7-----5-------|--3s-5--8-----7-------|
--5--------5-----5-----5----|-----------5-----5----|
----------------------------|----------------------|
----------------------------|----------------------|
----------------------------|----------------------|
----------------------------|----------------------|


--------3--5--8-----7-----------3s-5----|
--3--5-----------5-----5--x--5----------|
----------------------------------------|
----------------------------------------|
----------------------------------------|
----------------------------------------|


--8-----7-----------3s-5--8-----7-------|
-----5-----5--x--5-----------5-----5----|
----------------------------------------|
----------------------------------------|
----------------------------------------|
----------------------------------------|


--------3s-5--8-----7-----------3s-5----|
--x--5-----------5-----5--x--5----------|
----------------------------------------|
----------------------------------------|
----------------------------------------|
----------------------------------------|


--8-----7-----------3s-5--8-----7-------|----------------|--1--0----------||
-----5-----5--x--5-----------5-----5----|--5--5--3--1----|--------1-------||
----------------------------------------|----------------|-----------2----||
----------------------------------------|----------------|----------------||
----------------------------------------|----------------|----------------||
----------------------------------------|----------------|----------------||


----------8--8--8--8--8--8--8--8--8----|
----------5--5--5--5--5--5--5--5--5----|
o---------5--5--5--5--5--5--5--5--5----|
o3--------7--7--7--7--7--7--7--7--7----|
-3-------------------------------------|
-3-------------------------------------|


-----------7--7--7--7--7--7--7--7--7----|
-----------8--8--8--8--8--8--8--8--8----|
-----------4--4--4--4--4--4--4--4--4----|
--5-------------------------------------|
--5-------------------------------------|
--5-------------------------------------|


----------------------------------------|
----------------------------------------|
----------------------------------------|
-----------7h-5-----2h-5----------------|
--7M-7M-7--------7M-------7M-7M-7h-0----|
--7M-7M-7M-------7M-------7M-7M---------|


----------------------------------------|
----------------------------------------|
--------------------------2-----2L-2----|
-----------7h-5-----2h-5-----5----------|
--7M-7M-7M-------7M---------------------|
--7M-7M-7M-------7M---------------------|


-----------8--8--8--8--8--8--8--8--8----|
-----------5--5--5--5--5--5--5--5--5----|
-----------5--5--5--5--5--5--5--5--5----|
--3--------7--7--7--7--7--7--7--7--7----|
--3-------------------------------------|
--3-------------------------------------|


-----------7--7--7--7--7--7--7--7--7----|
-----------8--8--8--8--8--8--8--8--8----|
-----------4--4--4--4--4--4--4--4--4----|
--5-------------------------------------|
--5-------------------------------------|
--5-------------------------------------|


----------------------------------------|
----------------------------------------|
----------------------------------------|
-----------7h-5-----2h-5----------------|
--7M-7M-7--------7M-------7M-7M-7h-0----|
--7M-7M-7M-------7M-------7M-7M---------|


---------------------------------------||-------|----------------------------|
---------------------------------------||-------|--6L-6--6--6--6--6--6--6----|
--------------------------2-----2L-2--o||-------|----------------------------|
-----------7h-5-----2h-5-----5--------o||-------|--3L-3--3--3--3--3--3--3----|
--7M-7M-7M-------7M--------------------||-------|----------------------------|
--7M-7M-7M-------7M--------------------||-------|----------------------------|


----------------------------|----------------------------|
--6--6--6--6--6--6--6--10L--|--10-10-10-10-10-10-10-10---|
----------------------------|----------------------------|
--3--3--3--3--3--3--3--7L---|--7--7--7--7--7--7--7--7----|
----------------------------|----------------------------|
----------------------------|----------------------------|


----------------------------|----------------------------|
--10-10-10-10-10-10-10-6L---|--6--6--6--6--6--6--6--6----|
----------------------------|----------------------------|
--7--7--7--7--7--7--7--3L---|--3--3--3--3--3--3--3--3----|
----------------------------|----------------------------|
----------------------------|----------------------------|


----------------------------|----------------------------|
--6--6--6--6--6--6--6-------|----------------------------|
-----------------------7L---|--7--7L-7--7--7--7--9L-9----|
--3--3--3--3--3--3--3-------|----------------------------|
-----------------------5L---|--5--5L-5--5--5--5--7L-7----|
----------------------------|----------------------------|


----------------------------|--6--6--5--5--5--5--6--6----|
----------------------------|----------------------------|
--9--9L-9--9--9--9--9--9----|----------------------------|
----------------------------|----------------------------|
--7--7L-7--7--7--7--7--7----|----------------------------|
----------------------------|----------------------------|


--5--5--5--5----------------|--6--6--5--5--5--5--6--6----|
--------------6--6--6--6----|----------------------------|
----------------------------|----------------------------|
----------------------------|----------------------------|
----------------------------|----------------------------|
----------------------------|----------------------------|


--5--5--5--5----------------|--6--6--5--5--5--5--6--6----|
--------------6--6--6--6----|----------------------------|
----------------------------|----------------------------|
----------------------------|----------------------------|
----------------------------|----------------------------|
----------------------------|----------------------------|


--5--5--5--5----------------|--------10------|--------8-------||
--------------6--6--6--6----|--3--6-----6----|--5--6-----6----||
----------------------------|----------------|----------------||
----------------------------|----------------|----------------||
----------------------------|----------------|----------------||
----------------------------|----------------|----------------||


---------------------------|----------------------------|
---------------------------|----------------------------|
o--------------------------|----------------------------|
o--------------------------|--------5s-3----------------|
-0M-0M----------0M-3M-0M---|--3M-0M-3s-1-----3L----3----|
-0M-0M----------0M-3M-0M---|--3M-0M-------0M-3L----3----|


----------------------------|----------------------------|
----------------------------|----------------------------|
----------------------------|----------------------------|
----------------------------|----------------------------|
--0M-0M-0M-0M-3s-0-----5----|--3-----3--0----------------|
--0M-0M-0M-0M-3s-0--0M-5----|--3--0M-3--0--3--5--5L-5~---|


----------------------------|----------------------------|
----------------------------|----------------------------|
----------------------------|----------------------------|
----------------------------|--------5s-3----------------|
--0M-0M----------0M-3M-0M---|--3M-0M-3s-1-----3L----3----|
--0M-0M----------0M-3M-0M---|--3M-0M-------0M-3L----3----|


----------------------------|---------------------------||
----------------------------|---------------------------||
----------------------------|--------------------------o||
----------------------------|--------------------------o||
--0M-0M-0M-0M-3s-0-----5----|--3-----3--0---------------||
--0M-0M-0M-0M-3s-0--0M-5----|--3--0M-3--0--3--5--5L-5~--||


----------------------------|----------------------------|
----------------------------|----------------------------|
--3--3--3--3--3--3--3--3----|--3--3--3--3--3--3--3--3----|
----------------------------|----------------------------|
--1--1--1--1--1--1--1--1----|--1--1--1--1--1--1--1--1----|
----------------------------|----------------------------|


----------------------------|----------------------------|
----------------------------|----------------------------|
--7--7--7--7--7--7--7--7----|--7--7--7--7--7--7--7--7----|
----------------------------|----------------------------|
--5--5--5--5--5--5--5--5----|--5--5--5--5--5--5--5--5----|
----------------------------|----------------------------|


--10-10-10-10-10-10-10-10---|--10-10-10-10-10-10-10-10---|
----------------------------|----------------------------|
--7--7--7--7--7--7--7--7----|--7--7--7--7--7--7--7--7----|
----------------------------|----------------------------|
----------------------------|----------------------------|
----------------------------|----------------------------|


----------------------------|----------------------------|
----------------------------|----------------------------|
--7--7--7--7--7--7--7--7----|--9--9--9--9--9--9--9--9----|
----------------------------|----------------------------|
--5--5--5--5--5--5--5--5----|--7--7--7--7--7--7--7--7----|
----------------------------|----------------------------|


----------------------------|-------|-------|--3L---|--3----|--3L---|--3----|
----------------------------|--10L--|--10---|--5L---|--5----|--5L---|--5----|
--------5--------7----------|-------|-------|--5L---|--5----|--5L---|--5----|
----------------------------|--7L---|--7----|--5L---|--5----|--5L---|--5----|
--------3--------5----------|-------|-------|-------|-------|--3L---|--3----|
----------------------------|-------|-------|-------|-------|-------|-------|


-------|-------|--3L---|--3----|--3L---|--3----|--3L---|--3----|--5L---|--5----|
--3L---|--3----|--5L---|--5----|--5L---|--5----|--5L---|--5----|--8L---|--8----|
--4L---|--4----|--5L---|--5----|--5L---|--5----|--5L---|--5----|--7L---|--7----|
--5L---|--5----|--5L---|--5----|--5L---|--5----|--5L---|--5----|--5L---|--5----|
-------|-------|-------|-------|--3L---|--3----|-------|-------|--5L---|--5----|
-------|-------|-------|-------|-------|-------|-------|-------|-------|-------|


--3L---|--3----|--3L---|--3----|-------|-------|--5L---|--5----|--3L---|--3----|
--5L---|--5----|--5L---|--5----|-------|-------|--8L---|--8----|--5L---|--5----|
--5L---|--5----|--5L---|--5----|--5L---|--5----|--7L---|--7----|--5L---|--5----|
--5L---|--5----|--5L---|--5----|--5L---|--5----|--5L---|--5----|--5L---|--5----|
-------|-------|--3L---|--3----|--3L---|--3----|--5L---|--5----|-------|-------|
-------|-------|-------|-------|-------|-------|-------|-------|-------|-------|


-------|-------|-------|-------|--5L---|--5----|--3L---|--3----|-------|-------|
--6L---|--6----|-------|-------|--8L---|--8----|--5L---|--5----|-------|-------|
--5L---|--5----|--5L---|--5----|--7L---|--7----|--5L---|--5----|--7L---|--7----|
--7L---|--7----|--5L---|--5----|--5L---|--5----|--5L---|--5----|--7L---|--7----|
-------|-------|--3L---|--3----|--5L---|--5----|-------|-------|--5L---|--5----|
-------|-------|-------|-------|-------|-------|-------|-------|-------|-------|


-------|-------|-------|-------|----------------|----------------|
-------|-------|-------|-------|----------------|----------------|
--2L---|--2----|--5L---|--5----|----------------|----------------|
--2L---|--2----|--5L---|--5----|--3--3--3--3----|--3--3--3--3----|
--0L---|--0----|--3L---|--3----|--3--3--3--3----|--3--3--3--3----|
-------|-------|-------|-------|--3--3--3--3----|--3--3--3--3----|


----------------|----------------|----------------|----------------|
----------------|----------------|----------------|----------------|
----------------|----------------|----------------|----------------|
--5--5--5--5----|--5--5--5--5----|--7--7--7--7----|--7--7--7--7----|
--5--5--5--5----|--5--5--5--5----|--7--7--7--7----|--7--7--7--7----|
--5--5--5--5----|--5--5--5--5----|--7--7--7--7----|--7--7--7--7----|


----------------|----------------|----------------|----------------|-------|
----------------|----------------|----------------|----------------|-------|
--5--5--5--5----|--5--5--5--5----|----------------|----------------|-------|
--5--5--5--5----|--5--5--5--5----|----------------|----------------|-------|
--3--3--3--3----|--3--3--3--3----|----------------|----------------|-------|
----------------|----------------|----------------|----------------|-------|


-------|--8--8--8--8----|--8--8--8--8----|--5--5--5--5----|--5--5--5--5----|
-------|----------------|----------------|----------------|----------------|
-------|--5--5--5--5----|--5--5--5--5----|--2--2--2--2----|--2--2--2--2----|
-------|----------------|----------------|----------------|----------------|
-------|----------------|----------------|----------------|----------------|
-------|----------------|----------------|----------------|----------------|


--8--8--8--8----|--8--8--8--8----|--10-10-10-10---|--10-10-10-10---|
----------------|----------------|----------------|----------------|
--5--5--5--5----|--5--5--5--5----|--7--7--7--7----|--7--7--7--7----|
----------------|----------------|----------------|----------------|
----------------|----------------|----------------|----------------|
----------------|----------------|----------------|----------------|


--8--8--8--8----|--8--8--8--8----|--10-10-10-10---|--10-10-10-10---|
----------------|----------------|----------------|----------------|
--5--5--5--5----|--5--5--5--5----|--7--7--7--7----|--7--7--7--7----|
----------------|----------------|----------------|----------------|
----------------|----------------|----------------|----------------|
----------------|----------------|----------------|----------------|


--8--8--8--8----|--8--8--8--8----|--10-10-10-10---|--10-10-10-10---|
----------------|----------------|----------------|----------------|
--5--5--5--5----|--5--5--5--5----|--7--7--7--7----|--7--7--7--7----|
----------------|----------------|----------------|----------------|
----------------|----------------|----------------|----------------|
----------------|----------------|----------------|----------------|


--8--8--8--8----|--8--8--8--8----|--10-10-10-10---|--10-10-10-10---||
----------------|----------------|----------------|----------------||
--5--5--5--5----|--5--5--5--5----|--7--7--7--7----|--7--7--7--7----||
----------------|----------------|----------------|----------------||
----------------|----------------|----------------|----------------||
----------------|----------------|----------------|----------------||


-8--8--8--8----|--8--8--8--8----|--10-10-10-10---|--10-10-10-10--|||
---------------|----------------|----------------|---------------|||
o5--5--5--5----|--5--5--5--5----|--7--7--7--7----|--7--7--7--7--o|||
o--------------|----------------|----------------|--------------o|||
---------------|----------------|----------------|---------------|||
---------------|----------------|----------------|---------------|||


-8--8--8--8----|--8--8--8--8----|--10-10-10-10---|--10-10-10-10--|||
---------------|----------------|----------------|---------------|||
o5--5--5--5----|--5--5--5--5----|--7--7--7--7----|--7--7--7--7--o|||
o--------------|----------------|----------------|--------------o|||
---------------|----------------|----------------|---------------|||
---------------|----------------|----------------|---------------|||


-8--8--8--8----|--8--8--8--8----|--10-10-10-10---|--10-10-10-10---|--8L---|
---------------|----------------|----------------|----------------|-------|
o5--5--5--5----|--5--5--5--5----|--7--7--7--7----|--7--7--7--7----|--5L---|
o--------------|----------------|----------------|----------------|-------|
---------------|----------------|----------------|----------------|-------|
---------------|----------------|----------------|----------------|-------|


--8----||
-------||
--5----||
-------||
-------||
-------||

______________________________________________________
______________________________________________________
_______________________________________________________________________
_______________________________________________________________________
Title: Threads of sincerity
Artist: Life in your way
Album: Waking Giants
Words: Life in your way
Guitar 3

Legend
L - tied note
x - dead note
h - hammer on/pull off
b - bend
s - slide
~ - vibrato
g - ghost note
> - accentuated note
t - trill
M - palm mute
. - staccato
P - popping (bass)
S - slapping (bass)
+ - tapping
W - wide vibrato
< - fade in
w - whammy bar
= - tremolo picking
v - brush up
^ - brush down
V - pick stroke up
n - pick stroke down


D |-------|-------|-------|-------|-------|-------|-------|-------|-------||
A |-------|-------|-------|-------|-------|-------|-------|-------|-------||
F |-------|-------|-------|-------|-------|-------|-------|-------|-------||
C |-------|-------|-------|-------|-------|-------|-------|-------|-------||
G |-------|-------|-------|-------|-------|-------|-------|-------|-------||
C |-------|-------|-------|-------|-------|-------|-------|-------|-------||


------|-------|-------|-------|-------|-------|-------|------||-------|-------|
------|-------|-------|-------|-------|-------|-------|------||-------|-------|
o-----|-------|-------|-------|-------|-------|-------|-----o||-------|-------|
o-----|-------|-------|-------|-------|-------|-------|-----o||-------|-------|
------|-------|-------|-------|-------|-------|-------|------||-------|-------|
------|-------|-------|-------|-------|-------|-------|------||-------|-------|


-------|-------|-------|-------|-------|-------|-------|-------|-------|-------|
-------|-------|-------|-------|-------|-------|-------|-------|-------|-------|
-------|-------|-------|-------|-------|-------|-------|-------|-------|-------|
-------|-------|-------|-------|-------|-------|-------|-------|-------|-------|
-------|-------|-------|-------|-------|-------|-------|-------|-------|-------|
-------|-------|-------|-------|-------|-------|-------|-------|-------|-------|


-------|-------|-------|-------|-------|-------|-------|-------|-------|-------||
-------|-------|-------|-------|-------|-------|-------|-------|-------|-------||
-------|-------|-------|-------|-------|-------|-------|-------|-------|-------||
-------|-------|-------|-------|-------|-------|-------|-------|-------|-------||
-------|-------|-------|-------|-------|-------|-------|-------|-------|-------||
-------|-------|-------|-------|-------|-------|-------|-------|-------|-------||


------|-------|-------|-------|-------|-------|-------|------||-------|-------|
------|-------|-------|-------|-------|-------|-------|------||-------|-------|
o-----|-------|-------|-------|-------|-------|-------|-----o||-------|-------|
o-----|-------|-------|-------|-------|-------|-------|-----o||-------|-------|
------|-------|-------|-------|-------|-------|-------|------||-------|-------|
------|-------|-------|-------|-------|-------|-------|------||-------|-------|


-------|-------|-------|-------|-------|-------|-------|-------|-------|-------|
-------|-------|-------|-------|-------|-------|-------|-------|-------|-------|
-------|-------|-------|-------|-------|-------|-------|-------|-------|-------|
-------|-------|-------|-------|-------|-------|-------|-------|-------|-------|
-------|-------|-------|-------|-------|-------|-------|-------|-------|-------|
-------|-------|-------|-------|-------|-------|-------|-------|-------|-------|


-------|-------|-------|-------|-------||------|-------|-------|-------|-------|
-------|-------|-------|-------|-------||------|-------|-------|-------|-------|
-------|-------|-------|-------|-------||o-----|-------|-------|-------|-------|
-------|-------|-------|-------|-------||o-----|-------|-------|-------|-------|
-------|-------|-------|-------|-------||------|-------|-------|-------|-------|
-------|-------|-------|-------|-------||------|-------|-------|-------|-------|


-------|-------|------||-------|-------|-------|-------|-------|-------|-------|
-------|-------|------||-------|-------|-------|-------|-------|-------|-------|
-------|-------|-----o||-------|-------|-------|-------|-------|-------|-------|
-------|-------|-----o||-------|-------|-------|-------|-------|-------|-------|
-------|-------|------||-------|-------|-------|-------|-------|-------|-------|
-------|-------|------||-------|-------|-------|-------|-------|-------|-------|


-------|-------|-------|-------|-------|-------|-------|-------|-------|-------|
-------|-------|-------|-------|-------|-------|-------|-------|-------|-------|
-------|-------|-------|-------|-------|-------|-------|-------|-------|-------|
-------|-------|-------|-------|-------|-------|-------|-------|-------|-------|
-------|-------|-------|-------|-------|-------|-------|-------|-------|-------|
-------|-------|-------|-------|-------|-------|-------|-------|-------|-------|


-------|-------|-------|-------|-------|-------|-------|-------|-------|-------|
-------|-------|-------|-------|-------|-------|-------|-------|-------|-------|
-------|-------|-------|-------|-------|-------|-------|-------|-------|-------|
-------|-------|-------|-------|-------|-------|-------|-------|-------|-------|
-------|-------|-------|-------|-------|-------|-------|-------|-------|-------|
-------|-------|-------|-------|-------|-------|-------|-------|-------|-------|


-------|-------|-------|-------|-------|-------|-------|-------|-------|-------|
-------|-------|-------|-------|-------|-------|-------|-------|-------|-------|
-------|-------|-------|-------|-------|-------|-------|-------|-------|-------|
-------|-------|-------|-------|-------|-------|-------|-------|-------|-------|
-------|-------|-------|-------|-------|-------|-------|-------|-------|-------|
-------|-------|-------|-------|-------|-------|-------|-------|-------|-------|


-------|-------|-------|-------|-------|-------|-------|-------|-------|-------|
-------|-------|-------|-------|-------|-------|-------|-------|-------|-------|
-------|-------|-------|-------|-------|-------|-------|-------|-------|-------|
-------|-------|-------|-------|-------|-------|-------|-------|-------|-------|
-------|-------|-------|-------|-------|-------|-------|-------|-------|-------|
-------|-------|-------|-------|-------|-------|-------|-------|-------|-------|


-------|-------|-------|-------|-------|-------|-------|-------|-------|-------|
-------|-------|-------|-------|-------|-------|-------|-------|-------|-------|
-------|-------|-------|-------|-------|-------|-------|-------|-------|-------|
-------|-------|-------|-------|-------|-------|-------|-------|-------|-------|
-------|-------|-------|-------|-------|-------|-------|-------|-------|-------|
-------|-------|-------|-------|-------|-------|-------|-------|-------|-------|


-------|-------|-------|-------|-------|-------|-------|-------|-------|-------|
-------|-------|-------|-------|-------|-------|-------|-------|-------|-------|
-------|-------|-------|-------|-------|-------|-------|-------|-------|-------|
-------|-------|-------|-------|-------|-------|-------|-------|-------|-------|
-------|-------|-------|-------|-------|-------|-------|-------|-------|-------|
-------|-------|-------|-------|-------|-------|-------|-------|-------|-------|


-------|-------|-------|-------|-------|-------|-------|-------|-------|-------|
-------|-------|-------|-------|-------|-------|-------|-------|-------|-------|
-------|-------|-------|-------|-------|-------|-------|-------|-------|-------|
-------|-------|-------|-------|-------|-------|-------|-------|-------|-------|
-------|-------|-------|-------|-------|-------|-------|-------|-------|-------|
-------|-------|-------|-------|-------|-------|-------|-------|-------|-------|


-------|-------|-------|-------||------|-------|-------|------|||
-------|-------|-------|-------||------|-------|-------|------|||
-------|-------|-------|-------||o-----|-------|-------|-----o|||
-------|-------|-------|-------||o-----|-------|-------|-----o|||
-------|-------|-------|-------||------|-------|-------|------|||
-------|-------|-------|-------||------|-------|-------|------|||


-20----19------|--17----15------|--20----19------|--17----15-----|||
---------------|----------------|----------------|---------------|||
o---17----17---|-----17----17---|-----17----17---|-----17----17-o|||
o--------------|----------------|----------------|--------------o|||
---------------|----------------|----------------|---------------|||
---------------|----------------|----------------|---------------|||


-20----19------|--17----15------|--20----19------|--17----15------|-------|
---------------|----------------|----------------|----------------|-------|
o---17----17---|-----17----17---|-----17----17---|-----17----17---|-------|
o--------------|----------------|----------------|----------------|-------|
---------------|----------------|----------------|----------------|-------|
---------------|----------------|----------------|----------------|-------|


-------||
-------||
-------||
-------||
-------||
-------||
Добавлено: 26.09.2013
Другие материалы по этой песне:

Страница создана 24.02.2012
http://primanota.ru/life-in-your-way/threads-of-sincerity-chords.htm
Привет, Гость.
Предлагаем пройти революционный курс по гитаре.
Подарок от PrimaNota.Ru, забирай!