PrimaNota.ru - самый крупный в мире бесплатный архив песенных текстов, аккордов, табулатур и нот


Life In Film - Get Closer - таба, видео

Регистрация Запомнить меня
Войти через:  Facebook Google Twitter Vk Yandex Mail.ru

Life In Film - Get Closer - таба, видео

Печатать
Просмотров: 167
Авторы: Edward Ibbotson, Micky Osment, Samuel Fry, Dominic Sennett

-------------------------------------------------------------------------------
                             GET CLOSER – Life in Film
-------------------------------------------------------------------------------
Tabbed by: Jake Taylor
Email: Jakeyno7@live.co.uk

Tuning: standard

Guitar 1 intro
e|--8-----------8------------------------------------------------------------|
B|----8-10--------8-10-10----------------------------------------------------|
G|----------9-------------9--------------------------------------------------|
D|---------------------------------------------------------------------------|
A|---------------------------------------------------------------------------|
E|---------------------------------------------------------------------------|

Guitar 2
play these chords throughout varying in pace and strumming pattern listen a few 
times also the chorus.
     C    F    G
e|---8----8----10------------------------------------------------------------|
B|---8----10---12------------------------------------------------------------|
G|---9----10---12------------------------------------------------------------|
D|---10---10---12------------------------------------------------------------|
A|---10---8----10------------------------------------------------------------|
E|---8----8----10------------------------------------------------------------|



Guitar 1 (pre-Chorus)

e|------8---8---8---8-10--8----10-12-----10--12----10-------12-10------------|
B|----------------------10----------------------13---------------------------|
G|---8h9-8h9-8h9-8h9-------8h9-------9h10-------------11h12------------------|
D|---------------------------------------------------------------------------|
A|---------------------------------------------------------------------------|
E|---------------------------------------------------------------------------|
     2nd time around
e|--15-12-----------------------------------------------------------------------|
B|--------15--13--12-13---------------------------------------------------------|
G|------------------------------------------------------------------------------|
D|------------------------------------------------------------------------------|
A|------------------------------------------------------------------------------|
E|------------------------------------------------------------------------------|


Think you should have Guitar 1 (bridge)

e|---------------------------------------------------------------------------|
B|---------------------------------------13----------------------------------|
G|--10-12-10-9----------9---9-10-9-------------------------------------------|
D|-------------12-10-12-----------12-10--------------------------------------|
A|---------------------------------------------------------------------------|
E|---------------------------------------------------------------------------|

e|---------------------------------------------------------------------------|
B|---------------------------------------------------------------------------|
G|--10-12-10-9----------9-9-10-9--14--12--10---------------------------------|
D|-------------12-10-12------------------------------------------------------|
A|---------------------------------------------------------------------------|
E|---------------------------------------------------------------------------|
 Guitar 2
     F    G
e|---8---10------------------------------------------------------------------|
B|---10--12------------------------------------------------------------------|
G|---10--12------------------------------------------------------------------|
D|---10--12------------------------------------------------------------------|
A|---8---10------------------------------------------------------------------|
E|---8---10------------------------------------------------------------------|


  Chorus

     C   F    G
e|---8---8---10---------------------------------------------------------------|
B|---8---10--12---------------------------------------------------------------|
G|---9---10--12---------------------------------------------------------------|
D|---10--10--12---------------------------------------------------------------|
A|---10--8---10---------------------------------------------------------------|
E|---8---8---10---------------------------------------------------------------|




Hope you guys enjoy it, this song is amazing and they are an incredible band.



************************************

| /   slide up
| \   slide down
| h   hammer-on
| p   pull-off
| ~   vibrato
| +   harmonic
| x   Mute note
| b   Bend
| pb  Pre-bend
| br  Bend release
| pbr Pre-bend release
| brb Bend release bend

************************************
Добавлено: 26.07.2012
Другие материалы по этой песне:
  • Аккорды и текст

Страница создана 26.07.2012
http://primanota.ru/life-in-film/get-closer-chords.htm
Привет, Гость.
Предлагаем пройти революционный курс по гитаре.
Подарок от PrimaNota.Ru, забирай!