PrimaNota.ru - самый крупный в мире бесплатный архив песенных текстов, аккордов, табулатур и нот


Lidie H Edmunds - My Faith Has Found A Resting Place - таба, видео

Регистрация Запомнить меня
Войти через:  Facebook Google Twitter Vk Yandex Mail.ru

Lidie H Edmunds - My Faith Has Found A Resting Place - таба, видео

Печатать
Просмотров: 91
-------------------------------------------------------------------------------
                             SONG NAME - Band Name
-------------------------------------------------------------------------------
Tabbed by:
E-mail:
Key of:Ab
Tuning:E-A-D-G-B-e
capo: 1
e|---------------------------------------------------------------------------|
B|----------------------------------------1----------------------------------|
G|--------------------0-----------------------2-0--------0-------------------|
D|-0----0----2----0------4---2----2----2--2---2-0---4----0---0---0----2------|
A|-2----2----3----2---2--5---3----3-----------------5--------2---2----3------|
E|---------------------------------------------------------------------------|
   My faith has found a resting place not in device or creed i trust the 
e|---------------------------------------------------------------------------|
B|---------------------1-----------------------------------------------------|
G|----0-----------------------2--0----------0--------------------------------|
D|-2-----4-2---2---2---2------2--0----4-----0--------------------------------|
A|-0--0--5-3---3----------------------5--------------------------------------|
E|---------------------------------------------------------------------------|
   everliving one His wounds for me shall plead
e|---------------------------------------------------------------------------|
B|-------------0---3-0---0-------0-------------------------------------------|
G|---------0---0---0-------2-2------0---------2---0-----------------0--------|
D|------0--0---------0---0-0-0---0--0---4---2-2---0----0--0--2-0--------4--2-|
A|--------------------------------------5---3-------------2--3-2----2---5--3-|
E|---------------------------------------------------------------------------|
chorus: I need no other argument I need no other plea it is enough that Jesus
e|---------------------------------------------------------------------------|
B|------------1--------------------------------------------------------------|
G|---------------2---0-------0-----------------------------------------------|
D|--2----2----2--2---0----4--0-----------------------------------------------|
A|--3---------------------5--------------------------------------------------|
E|---------------------------------------------------------------------------|
   died and that He died for me 


************************************

| /   slide up
| \   slide down
| h   hammer-on
| p   pull-off
| ~   vibrato
| +   harmonic
| x   Mute note
| b   Bend
| pb  Pre-bend
| br  Bend release
| pbr Pre-bend release
| brb Bend release bend

************************************
Добавлено: 18.12.2015
Другие материалы по этой песне:
  • Аккорды и текст

Страница создана 18.12.2015
http://primanota.ru/lidie-h-edmunds/my-faith-has-found-a-resting-place-chords.htm
Привет, Гость.
Предлагаем пройти революционный курс по гитаре.
Подарок от PrimaNota.Ru, забирай!