PrimaNota.ru - самый крупный в мире бесплатный архив песенных текстов, аккордов, табулатур и нот


Libido - La Mujer - аккорды и текст, видео

Регистрация Запомнить меня
Войти через:  Facebook Google Twitter Vk Yandex Mail.ru

Libido - La Mujer - аккорды и текст, видео

Печатать
Просмотров: 111
La Mujer
Libido
INTRO :
     D        G        D      E   F  E A
e|---2--------3--~3----2-----------------------------|
B|---3---3-0--3---~3---3---3-3/5-5/6-5-3-------------|
G|---2--2-----0--------2--2--------------------------|
D|---0--------0--------0-----------------------------|
A|---0--------2--------0-----------------------------|
E|---0--------3--------0-----------------------------|


D              Em
La mujer que el soño para amar
 G                    D
no era del cuento que imagino

 D          Em
Ella nunca se complico
 G               Bm
ella no tuvo el valor de arriesgar


D          Em
Nunca le dijo que no
 G              D
el como todo un gran soñador

D              Em
Quiso contar una historia de amor
 G              Bm
no creyo en el amor...


D|-----------|-------------|---------9----|--------------------|
A|--5--------|-----------5-|--5-7-9-----5-|-7-7-9-10-----------|
E|----3-2-0--|-0-2-3-2-3---|--------------|----------5--7----7-|


D            Em
El que nunca supo perder
 G                  D
hoy no le quedan las ganas de ayer

D              Em
Porque ya decidio recoger
 G                    Bm
mirada a mirada que hirio el corazon


 D              Em
Ella se fue sin dejarle un adios
 G                   D
con las palabras que el regalo

 D              Em
Con la sonrisa que la conquisto
 G                   Bm
con todos los besos que en vano entrego


A|----6(pique)--9(pique)--12(pique)-------|
E|---------------------------------------|


 G              Em
La estrella ya se marcho
 C                Em
hoy nadie mas los puede ver
G             Em
La noche los abandono
C           D      G
y el sol no quiere salir...
C           D        Em
y el sol no quiere salir...


D              Em
El tiempo se encargara de borrar
 G                    D
los recuerdos que la estrella guardo
D              Em
Ninguno creyo en la luz del sol
 G                    Bm
ni en las caricias que la noche observo


A|----6(pique)--9(pique)--12(pique)-------|
E|---------------------------------------|


 G              Em
La estrella ya se marcho
 C                  Em
hoy nadie mas los puede ver
 G           Em
La noche los abandono
 C          D     G
y el sol no quiere salir...
 C          D        Em
y el sol no quiere salir...
Добавлено: 23.08.2015
Другие материалы по этой песне:
  • Аккорды и текст

Страница создана 23.08.2015
http://primanota.ru/libido/la-mujer-chords.htm
Привет, Гость.
Предлагаем пройти революционный курс по гитаре.
Подарок от PrimaNota.Ru, забирай!