PrimaNota.ru - самый крупный в мире бесплатный архив песенных текстов, аккордов, табулатур и нот


The Liberty - Broke - таба, видео

Регистрация Запомнить меня
Войти через:  Facebook Google Twitter Vk Yandex Mail.ru

The Liberty - Broke - таба, видео

Печатать
Просмотров: 30
-------------------------------------------------------------------------------
                             Broke - The Liberty 
-------------------------------------------------------------------------------
Tabbed by: Sara Moreno
E-mail: sara.moreno01@gmail.com

Tuning: standard
*unofficial tab*

 INTRO

Guitar 1 
e|---------------------------------------------------------------------------|
B|---------------------------------------------------------------------------|
G|-----6-6---6--5---5--5-----3-3---3---5--5-5--------------------------------|
D|---8------8-----6---6-6--4------4-----6------------------------------------| x6 
A|--------------------------------------------8-8----------------------------|
E|---------------------------------------------------------------------------|

Guitar 2 *after drums* 
e|---------------------------------------------------------------------------|
B|---------------------------------------------------------------------------|
G|---------------------------------------------------------------------------|
D|---8--8--8-8-8-8----6--6--6-6-6----4--4--4-4-4-4----6--6--6-6-6-6----------| x4
A|---8--8--8-8-8-8----6--6--6-6-6----4--4--4-4-4-4----6--6--6-6-6-6----------|
E|---6--6--6-6-6-6----4--4--4-4-4----2--2--2-2-2-2----4--4--4-4-4-4----------|

VERSE
How many times..

Guitar 1
e|---------------------------------------------------------------------------|
B|---------------------------------------------------------------------------|
G|-----6-6---6--5---5--5-----3-3---3---5--5-5--------------------------------|
D|---8------8-----6---6-6--4------4-----6------------------------------------| x2
A|--------------------------------------------8-8----------------------------|
E|---------------------------------------------------------------------------|
P.M. . . .  ..  . . . ...  . . .  ..   .. . . . .

e|---------------------------------------------------------------------------|
B|---------------------------------------------------------------------------|
G|-----6-6---6--5---5--5-----3-3---3---5--5-5--------------------------------|
D|---8------8-----6---6-6--4------4-----6------------------------------------| x2
A|--------------------------------------------8-8----------------------------|
E|---------------------------------------------------------------------------|

Guitar 2     
e|---------------------------------------------------------------------------|
B|---------------------------------------------------------------------------|
G|---------------------------------------------------------------------------|
D|---8--8--8----6---6--6----4--4--4----6---6--6------------------------------| x2
A|---8--8--8----6---6--6----4--4--4----6---6--6------------------------------|
E|---6--6--6----4---4--4----2--2--2----4---4--4------------------------------|

e|---------------------------------------------------------------------------|
B|---------------------------------------------------------------------------|
G|---------------------------------------------------------------------------|
D|---8--8--8-------6---6--6---------4--4--4-------6---6--6-------------------| x2
A|---8--8--8-------6---6--6---------4--4--4-------6---6--6-------------------|
E|---6--6--6-x-x-x-4---4--4-x-x-x-x-2--2--2-x-x-x-4---4--4-x-x-x-x-----------|

CHORUS 
How many ways are lost and forgotten...

Guitar 1
e|--------------------------------------------------------------------X-X-X--|
B|---------------------------------/9---------------------------------X-X-X--|
G|---6--8-/10--8--6-------6--8--10---10~---6--8-/10--8--6----6--------X-X-X--|
D|--8---------------8~--8----------------8----------------8----8~-----X-X-X--|
A|--------------------------------------------------------------------X-X-X--|
E|--------------------------------------------------------------------X-X-X--|

e|---------------------------------------------------------------------------|
B|---------------------------------/9-----9----------------------------------|
G|---6--8-/10--8--6-------6--8--10---10~---10--8~--6--8--6-------------------|
D|--8---------------8~--8-----------------------------------/8~~~------------|
A|---------------------------------------------------------------------------|
E|---------------------------------------------------------------------------|

Guitar 2
e|---------------------------------------------------------------------------|
B|---------------------------------------------------------------------------|
G|---------------------------------------------------------------------------|
D|---4-4-4-4-4-4-4-4---6-6-6-6-6-6-6-6---8-8-8-8-8-8-8-8---6-6-6-6-6-6-6-6---|
A|---4-4-4-4-4-4-4-4---6-6-6-6-6-6-6-6---8-8-8-8-8-8-8-8---6-6-6-6-6-6-6-6---|
E|---2-2-2-2-2-2-2-2---4-4-4-4-4-4-4-4---6-6-6-6-6-6-6-6---4-4-4-4-4-4-4-4---|

e|------------------------------------------x-x-x----------------------------|
B|------------------------------------------x-x-x----------------------------|
G|------------------------------------------x-x-x----------------------------|
D|---4-4-4-4-4-4-4-4---6-6-6-6-6-6-6-6---8~-x-x-x-|
A|---4-4-4-4-4-4-4-4---6-6-6-6-6-6-6-6---8~-x-x-x-|
E|---2-2-2-2-2-2-2-2---4-4-4-4-4-4-4-4---6~-x-x-x-|

e|---------------------------------------------------------------------------|
B|---------------------------------------------------------------------------|
G|---------------------------------------------------------------------------|
D|---4-4-4-4-4-4-4-4---6-6-6-6-6-6-6-6---8-8-8-8-8-8-8-8---6-6-6-6-6-6-6-6---|
A|---4-4-4-4-4-4-4-4---6-6-6-6-6-6-6-6---8-8-8-8-8-8-8-8---6-6-6-6-6-6-6-6---|
E|---2-2-2-2-2-2-2-2---4-4-4-4-4-4-4-4---6-6-6-6-6-6-6-6---4-4-4-4-4-4-4-4---|

e|-------------------------------------------|
B|-------------------------------------------|
G|-------------------------------------------|
D|---4-4-4-4-4-4-4-4---6-6-6-6-6-6-6-6---8~--|
A|---4-4-4-4-4-4-4-4---6-6-6-6-6-6-6-6---8~--|
E|---2-2-2-2-2-2-2-2---4-4-4-4-4-4-4-4---6~--|

INTRO x2
VERSE x4 ( Guitar 2 same / Guitar 1 ONLY ---> last repetition )
CHORUS 
*violins*
CHORUS x2 ( Guitar 1 ONLY --> second repetition )
*violins*

END
e|---------------------------------------------------|
B|---------------------------------------------------|
G|---3-3----3--/5--5-5-------------------------------|
D|-4------4------6---------8~~~----------------------| 
A|--------------------8-8----------------------------|
E|---------------------------------------------------|




************************************

| /   slide up
| \   slide down
| h   hammer-on
| p   pull-off
| ~   vibrato
| +   harmonic
| x   Mute note
| b   Bend
| pb  Pre-bend
| br  Bend release
| pbr Pre-bend release
| brb Bend release bend

************************************
Добавлено: 29.12.2015
Другие материалы по этой песне:
  • Аккорды и текст

Страница создана 29.12.2015
http://primanota.ru/liberty/broke-chords.htm
Привет, Гость.
Предлагаем пройти революционный курс по гитаре.
Подарок от PrimaNota.Ru, забирай!